  0
SECTION
  2
HEADER
  9
$ACADVER
  1
AC1018
  9
$ACADMAINTVER
 70
     0
  9
$DWGCODEPAGE
  3
ANSI_932
  9
$INSBASE
 10
0.0
 20
0.0
 30
0.0
  9
$EXTMIN
 10
1.000000000000000E+20
 20
1.000000000000000E+20
 30
1.000000000000000E+20
  9
$EXTMAX
 10
-1.000000000000000E+20
 20
-1.000000000000000E+20
 30
-1.000000000000000E+20
  9
$LIMMIN
 10
0.0
 20
0.0
  9
$LIMMAX
 10
12.0
 20
9.0
  9
$ORTHOMODE
 70
     0
  9
$REGENMODE
 70
     1
  9
$FILLMODE
 70
     1
  9
$QTEXTMODE
 70
     0
  9
$MIRRTEXT
 70
     1
  9
$LTSCALE
 40
1.0
  9
$ATTMODE
 70
     1
  9
$TEXTSIZE
 40
0.2
  9
$TRACEWID
 40
0.05
  9
$TEXTSTYLE
  7
Standard
  9
$CLAYER
  8
0
  9
$CELTYPE
  6
ByLayer
  9
$CECOLOR
 62
   256
  9
$CELTSCALE
 40
1.0
  9
$DISPSILH
 70
     0
  9
$DIMSCALE
 40
1.0
  9
$DIMASZ
 40
0.18
  9
$DIMEXO
 40
0.0625
  9
$DIMDLI
 40
0.38
  9
$DIMRND
 40
0.0
  9
$DIMDLE
 40
0.0
  9
$DIMEXE
 40
0.18
  9
$DIMTP
 40
0.0
  9
$DIMTM
 40
0.0
  9
$DIMTXT
 40
0.18
  9
$DIMCEN
 40
0.09
  9
$DIMTSZ
 40
0.0
  9
$DIMTOL
 70
     0
  9
$DIMLIM
 70
     0
  9
$DIMTIH
 70
     1
  9
$DIMTOH
 70
     1
  9
$DIMSE1
 70
     0
  9
$DIMSE2
 70
     0
  9
$DIMTAD
 70
     0
  9
$DIMZIN
 70
     0
  9
$DIMBLK
  1

  9
$DIMASO
 70
     1
  9
$DIMSHO
 70
     1
  9
$DIMPOST
  1

  9
$DIMAPOST
  1

  9
$DIMALT
 70
     0
  9
$DIMALTD
 70
     2
  9
$DIMALTF
 40
25.4
  9
$DIMLFAC
 40
1.0
  9
$DIMTOFL
 70
     0
  9
$DIMTVP
 40
0.0
  9
$DIMTIX
 70
     0
  9
$DIMSOXD
 70
     0
  9
$DIMSAH
 70
     0
  9
$DIMBLK1
  1

  9
$DIMBLK2
  1

  9
$DIMSTYLE
  2
Standard
  9
$DIMCLRD
 70
     0
  9
$DIMCLRE
 70
     0
  9
$DIMCLRT
 70
     0
  9
$DIMTFAC
 40
1.0
  9
$DIMGAP
 40
0.09
  9
$DIMJUST
 70
     0
  9
$DIMSD1
 70
     0
  9
$DIMSD2
 70
     0
  9
$DIMTOLJ
 70
     1
  9
$DIMTZIN
 70
     0
  9
$DIMALTZ
 70
     0
  9
$DIMALTTZ
 70
     0
  9
$DIMUPT
 70
     0
  9
$DIMDEC
 70
     4
  9
$DIMTDEC
 70
     4
  9
$DIMALTU
 70
     2
  9
$DIMALTTD
 70
     2
  9
$DIMTXSTY
  7
Standard
  9
$DIMAUNIT
 70
     0
  9
$DIMADEC
 70
     0
  9
$DIMALTRND
 40
0.0
  9
$DIMAZIN
 70
     0
  9
$DIMDSEP
 70
    46
  9
$DIMATFIT
 70
     3
  9
$DIMFRAC
 70
     0
  9
$DIMLDRBLK
  1

  9
$DIMLUNIT
 70
     2
  9
$DIMLWD
 70
    -2
  9
$DIMLWE
 70
    -2
  9
$DIMTMOVE
 70
     0
  9
$LUNITS
 70
     2
  9
$LUPREC
 70
     4
  9
$SKETCHINC
 40
0.1
  9
$FILLETRAD
 40
0.5
  9
$AUNITS
 70
     0
  9
$AUPREC
 70
     0
  9
$MENU
  1
.
  9
$ELEVATION
 40
0.0
  9
$PELEVATION
 40
0.0
  9
$THICKNESS
 40
0.0
  9
$LIMCHECK
 70
     0
  9
$CHAMFERA
 40
0.5
  9
$CHAMFERB
 40
0.5
  9
$CHAMFERC
 40
1.0
  9
$CHAMFERD
 40
0.0
  9
$SKPOLY
 70
     0
  9
$TDCREATE
 40
2458624.404791667
  9
$TDUCREATE
 40
2458624.029791667
  9
$TDUPDATE
 40
2458624.404791678
  9
$TDUUPDATE
 40
2458624.029791678
  9
$TDINDWG
 40
0.0000000116
  9
$TDUSRTIMER
 40
0.0000000116
  9
$USRTIMER
 70
     1
  9
$ANGBASE
 50
0.0
  9
$ANGDIR
 70
     0
  9
$PDMODE
 70
     0
  9
$PDSIZE
 40
0.0
  9
$PLINEWID
 40
0.0
  9
$SPLFRAME
 70
     0
  9
$SPLINETYPE
 70
     6
  9
$SPLINESEGS
 70
     8
  9
$HANDSEED
  5
26D
  9
$SURFTAB1
 70
     6
  9
$SURFTAB2
 70
     6
  9
$SURFTYPE
 70
     6
  9
$SURFU
 70
     6
  9
$SURFV
 70
     6
  9
$UCSBASE
  2

  9
$UCSNAME
  2

  9
$UCSORG
 10
0.0
 20
0.0
 30
0.0
  9
$UCSXDIR
 10
1.0
 20
0.0
 30
0.0
  9
$UCSYDIR
 10
0.0
 20
1.0
 30
0.0
  9
$UCSORTHOREF
  2

  9
$UCSORTHOVIEW
 70
     0
  9
$UCSORGTOP
 10
0.0
 20
0.0
 30
0.0
  9
$UCSORGBOTTOM
 10
0.0
 20
0.0
 30
0.0
  9
$UCSORGLEFT
 10
0.0
 20
0.0
 30
0.0
  9
$UCSORGRIGHT
 10
0.0
 20
0.0
 30
0.0
  9
$UCSORGFRONT
 10
0.0
 20
0.0
 30
0.0
  9
$UCSORGBACK
 10
0.0
 20
0.0
 30
0.0
  9
$PUCSBASE
  2

  9
$PUCSNAME
  2

  9
$PUCSORG
 10
0.0
 20
0.0
 30
0.0
  9
$PUCSXDIR
 10
1.0
 20
0.0
 30
0.0
  9
$PUCSYDIR
 10
0.0
 20
1.0
 30
0.0
  9
$PUCSORTHOREF
  2

  9
$PUCSORTHOVIEW
 70
     0
  9
$PUCSORGTOP
 10
0.0
 20
0.0
 30
0.0
  9
$PUCSORGBOTTOM
 10
0.0
 20
0.0
 30
0.0
  9
$PUCSORGLEFT
 10
0.0
 20
0.0
 30
0.0
  9
$PUCSORGRIGHT
 10
0.0
 20
0.0
 30
0.0
  9
$PUCSORGFRONT
 10
0.0
 20
0.0
 30
0.0
  9
$PUCSORGBACK
 10
0.0
 20
0.0
 30
0.0
  9
$USERI1
 70
     0
  9
$USERI2
 70
     0
  9
$USERI3
 70
     0
  9
$USERI4
 70
     0
  9
$USERI5
 70
     0
  9
$USERR1
 40
0.0
  9
$USERR2
 40
0.0
  9
$USERR3
 40
0.0
  9
$USERR4
 40
0.0
  9
$USERR5
 40
0.0
  9
$WORLDVIEW
 70
     1
  9
$SHADEDGE
 70
     3
  9
$SHADEDIF
 70
    70
  9
$TILEMODE
 70
     1
  9
$MAXACTVP
 70
    64
  9
$PINSBASE
 10
0.0
 20
0.0
 30
0.0
  9
$PLIMCHECK
 70
     0
  9
$PEXTMIN
 10
1.000000000000000E+20
 20
1.000000000000000E+20
 30
1.000000000000000E+20
  9
$PEXTMAX
 10
-1.000000000000000E+20
 20
-1.000000000000000E+20
 30
-1.000000000000000E+20
  9
$PLIMMIN
 10
0.0
 20
0.0
  9
$PLIMMAX
 10
12.0
 20
9.0
  9
$UNITMODE
 70
     0
  9
$VISRETAIN
 70
     1
  9
$PLINEGEN
 70
     0
  9
$PSLTSCALE
 70
     1
  9
$TREEDEPTH
 70
  3020
  9
$CMLSTYLE
  2
Standard
  9
$CMLJUST
 70
     0
  9
$CMLSCALE
 40
1.0
  9
$PROXYGRAPHICS
 70
     1
  9
$MEASUREMENT
 70
     0
  9
$CELWEIGHT
370
    -1
  9
$ENDCAPS
280
     0
  9
$JOINSTYLE
280
     0
  9
$LWDISPLAY
290
     1
  9
$INSUNITS
 70
     1
  9
$HYPERLINKBASE
  1

  9
$STYLESHEET
  1

  9
$XEDIT
290
     1
  9
$CEPSNTYPE
380
     0
  9
$PSTYLEMODE
290
     1
  9
$FINGERPRINTGUID
  2
{7AF68286-5ED6-59CB-3AC8-961893A18401}
  9
$VERSIONGUID
  2
{FAEB1C32-E019-11D5-929B-00C0DF256EC4}
  9
$EXTNAMES
290
     1
  9
$PSVPSCALE
 40
0.0
  9
$OLESTARTUP
290
     0
  9
$SORTENTS
280
   127
  9
$INDEXCTL
280
     0
  9
$HIDETEXT
280
     1
  9
$XCLIPFRAME
290
     0
  9
$HALOGAP
280
     0
  9
$OBSCOLOR
 70
   257
  9
$OBSLTYPE
280
     0
  9
$INTERSECTIONDISPLAY
280
     0
  9
$INTERSECTIONCOLOR
 70
   257
  9
$DIMASSOC
280
     2
  9
$PROJECTNAME
  1

  0
ENDSEC
  0
SECTION
  2
CLASSES
  0
CLASS
  1
ACDBDICTIONARYWDFLT
  2
AcDbDictionaryWithDefault
  3
ObjectDBX Classes
 90
        0
 91
        3
280
     0
281
     0
  0
CLASS
  1
VISUALSTYLE
  2
AcDbVisualStyle
  3
ObjectDBX Classes
 90
     4095
 91
        3
280
     0
281
     0
  0
ENDSEC
  0
SECTION
  2
TABLES
  0
TABLE
  2
VPORT
  5
8
330
0
100
AcDbSymbolTable
 70
     1
  0
VPORT
  5
29
330
8
100
AcDbSymbolTableRecord
100
AcDbViewportTableRecord
  2
*Active
 70
     0
 10
0.0
 20
0.0
 11
1.0
 21
1.0
 12
0.0
 22
0.0
 13
0.0
 23
0.0
 14
0.5
 24
0.5
 15
0.5
 25
0.5
 16
0.0
 26
0.0
 36
1.0
 17
338.1359496224973
 27
-150.8908758845863
 37
0.0
 40
296.9999592356459
 41
0.7070763662937379
 42
50.0
 43
0.0
 44
0.0
 50
0.0
 51
0.0
 71
     0
 72
   100
 73
     1
 74
     3
 75
     0
 76
     0
 77
     0
 78
     0
281
     0
 65
     1
110
0.0
120
0.0
130
0.0
111
1.0
121
0.0
131
0.0
112
0.0
122
1.0
132
0.0
 79
     0
146
0.0
  0
ENDTAB
  0
TABLE
  2
LTYPE
  5
5
330
0
100
AcDbSymbolTable
 70
     1
  0
LTYPE
  5
14
330
5
100
AcDbSymbolTableRecord
100
AcDbLinetypeTableRecord
  2
ByBlock
 70
     0
  3

 72
    65
 73
     0
 40
0.0
  0
LTYPE
  5
15
330
5
100
AcDbSymbolTableRecord
100
AcDbLinetypeTableRecord
  2
ByLayer
 70
     0
  3

 72
    65
 73
     0
 40
0.0
  0
LTYPE
  5
16
330
5
100
AcDbSymbolTableRecord
100
AcDbLinetypeTableRecord
  2
Continuous
 70
     0
  3
Solid line
 72
    65
 73
     0
 40
0.0
  0
ENDTAB
  0
TABLE
  2
LAYER
  5
2
330
0
100
AcDbSymbolTable
 70
     3
  0
LAYER
  5
10
330
2
100
AcDbSymbolTableRecord
100
AcDbLayerTableRecord
  2
0
 70
     0
 62
     7
  6
Continuous
370
    -3
390
F
  0
LAYER
  5
3B
330
2
100
AcDbSymbolTableRecord
100
AcDbLayerTableRecord
  2
cut line
 70
     0
 62
     7
  6
Continuous
370
    -3
390
F
  0
LAYER
  5
17C
330
2
100
AcDbSymbolTableRecord
100
AcDbLayerTableRecord
  2
fold line
 70
     0
 62
     7
  6
Continuous
370
    -3
390
F
  0
ENDTAB
  0
TABLE
  2
STYLE
  5
3
330
0
100
AcDbSymbolTable
 70
     1
  0
STYLE
  5
11
330
3
100
AcDbSymbolTableRecord
100
AcDbTextStyleTableRecord
  2
Standard
 70
     0
 40
0.0
 41
1.0
 50
0.0
 71
     0
 42
0.2
  3
txt
  4

  0
ENDTAB
  0
TABLE
  2
VIEW
  5
6
330
0
100
AcDbSymbolTable
 70
     0
  0
ENDTAB
  0
TABLE
  2
UCS
  5
7
330
0
100
AcDbSymbolTable
 70
     0
  0
ENDTAB
  0
TABLE
  2
APPID
  5
9
330
0
100
AcDbSymbolTable
 70
     1
  0
APPID
  5
12
330
9
100
AcDbSymbolTableRecord
100
AcDbRegAppTableRecord
  2
ACAD
 70
     0
  0
ENDTAB
  0
TABLE
  2
DIMSTYLE
  5
A
330
0
100
AcDbSymbolTable
 70
     1
100
AcDbDimStyleTable
  0
DIMSTYLE
105
27
330
A
100
AcDbSymbolTableRecord
100
AcDbDimStyleTableRecord
  2
Standard
 70
     0
340
11
  0
ENDTAB
  0
TABLE
  2
BLOCK_RECORD
  5
1
330
0
100
AcDbSymbolTable
 70
    11
  0
BLOCK_RECORD
  5
1F
330
1
100
AcDbSymbolTableRecord
100
AcDbBlockTableRecord
  2
*Model_Space
340
22
  0
BLOCK_RECORD
  5
1B
330
1
100
AcDbSymbolTableRecord
100
AcDbBlockTableRecord
  2
*Paper_Space
340
1E
  0
BLOCK_RECORD
  5
23
330
1
100
AcDbSymbolTableRecord
100
AcDbBlockTableRecord
  2
*Paper_Space0
340
26
  0
BLOCK_RECORD
  5
5D
330
1
100
AcDbSymbolTableRecord
100
AcDbBlockTableRecord
  2
block 2
340
0
102
{BLKREFS
331
5E
102
}
  0
BLOCK_RECORD
  5
61
330
1
100
AcDbSymbolTableRecord
100
AcDbBlockTableRecord
  2
block 3
340
0
102
{BLKREFS
331
62
102
}
  0
BLOCK_RECORD
  5
80
330
1
100
AcDbSymbolTableRecord
100
AcDbBlockTableRecord
  2
block 4
340
0
102
{BLKREFS
331
81
102
}
  0
BLOCK_RECORD
  5
BC
330
1
100
AcDbSymbolTableRecord
100
AcDbBlockTableRecord
  2
block 5
340
0
102
{BLKREFS
331
BD
102
}
  0
BLOCK_RECORD
  5
C0
330
1
100
AcDbSymbolTableRecord
100
AcDbBlockTableRecord
  2
block 6
340
0
102
{BLKREFS
331
C1
102
}
  0
BLOCK_RECORD
  5
C5
330
1
100
AcDbSymbolTableRecord
100
AcDbBlockTableRecord
  2
block 7
340
0
102
{BLKREFS
331
C6
102
}
  0
BLOCK_RECORD
  5
17D
330
1
100
AcDbSymbolTableRecord
100
AcDbBlockTableRecord
  2
block 8
340
0
102
{BLKREFS
331
17E
102
}
  0
BLOCK_RECORD
  5
1A3
330
1
100
AcDbSymbolTableRecord
100
AcDbBlockTableRecord
  2
block 9
340
0
102
{BLKREFS
331
1A4
102
}
  0
BLOCK_RECORD
  5
1BE
330
1
100
AcDbSymbolTableRecord
100
AcDbBlockTableRecord
  2
block 10
340
0
102
{BLKREFS
331
1BF
102
}
  0
BLOCK_RECORD
  5
1D9
330
1
100
AcDbSymbolTableRecord
100
AcDbBlockTableRecord
  2
block 11
340
0
102
{BLKREFS
331
1DA
102
}
  0
ENDTAB
  0
ENDSEC
  0
SECTION
  2
BLOCKS
  0
BLOCK
  5
20
330
1F
100
AcDbEntity
  8
0
100
AcDbBlockBegin
  2
*Model_Space
 70
     0
 71
     0
 10
0.0
 20
0.0
 30
0.0
  3
*Model_Space
  1

  0
ENDBLK
  5
21
330
1F
100
AcDbEntity
  8
0
100
AcDbBlockEnd
  0
BLOCK
  5
1C
330
1B
100
AcDbEntity
 67
     1
  8
0
100
AcDbBlockBegin
  2
*Paper_Space
 70
     0
 71
     0
 10
0.0
 20
0.0
 30
0.0
  3
*Paper_Space
  1

  0
ENDBLK
  5
1D
330
1B
100
AcDbEntity
 67
     1
  8
0
100
AcDbBlockEnd
  0
BLOCK
  5
24
330
23
100
AcDbEntity
  8
0
100
AcDbBlockBegin
  2
*Paper_Space0
 70
     0
 71
     0
 10
0.0
 20
0.0
 30
0.0
  3
*Paper_Space0
  1

  0
ENDBLK
  5
25
330
23
100
AcDbEntity
  8
0
100
AcDbBlockEnd
  0
BLOCK
  5
5F
330
5D
100
AcDbEntity
  8
0
100
AcDbBlockBegin
  2
block 2
 70
     0
 71
     0
 10
0.0
 20
0.0
 30
0.0
  3
block 2
  1

  0
INSERT
  5
62
330
5D
100
AcDbEntity
  8
cut line
100
AcDbBlockReference
  2
block 3
 10
0.0
 20
0.0
 30
0.0
  0
INSERT
  5
81
330
5D
100
AcDbEntity
  8
cut line
100
AcDbBlockReference
  2
block 4
 10
0.0
 20
0.0
 30
0.0
  0
ENDBLK
  5
60
330
5D
100
AcDbEntity
  8
0
100
AcDbBlockEnd
  0
BLOCK
  5
63
330
61
100
AcDbEntity
  8
0
100
AcDbBlockBegin
  2
block 3
 70
     0
 71
     0
 10
0.0
 20
0.0
 30
0.0
  3
block 3
  1

  0
POLYLINE
  5
65
330
61
100
AcDbEntity
  8
cut line
 62
    22
420
 15540260
370
     9
100
AcDb2dPolyline
 66
     1
 10
0.0
 20
0.0
 30
0.0
  0
VERTEX
  5
66
330
65
100
AcDbEntity
  8
cut line
 62
    22
420
 15540260
370
     9
100
AcDbVertex
100
AcDb2dVertex
 10
48.81373018527921
 20
-251.8454372200248
 30
0.0
  0
VERTEX
  5
67
330
65
100
AcDbEntity
  8
cut line
 62
    22
420
 15540260
370
     9
100
AcDbVertex
100
AcDb2dVertex
 10
54.0390787625319
 20
-247.5914333148383
 30
0.0
  0
VERTEX
  5
68
330
65
100
AcDbEntity
  8
cut line
 62
    22
420
 15540260
370
     9
100
AcDbVertex
100
AcDb2dVertex
 10
64.15181204993428
 20
-247.6086587922645
 30
0.0
  0
VERTEX
  5
69
330
65
100
AcDbEntity
  8
cut line
 62
    22
420
 15540260
370
     9
100
AcDbVertex
100
AcDb2dVertex
 10
69.15719128045376
 20
-251.8798881748773
 30
0.0
  0
VERTEX
  5
6A
330
65
100
AcDbEntity
  8
cut line
 62
    22
420
 15540260
370
     9
100
AcDbVertex
100
AcDb2dVertex
 10
69.14444442715833
 20
-259.4646103952033
 30
0.0
  0
VERTEX
  5
6B
330
65
100
AcDbEntity
  8
cut line
 62
    22
420
 15540260
370
     9
100
AcDbVertex
100
AcDb2dVertex
 10
76.62633054724967
 20
-259.4770127389502
 30
0.0
  0
VERTEX
  5
6C
330
65
100
AcDbEntity
  8
cut line
 62
    22
420
 15540260
370
     9
100
AcDbVertex
100
AcDb2dVertex
 10
81.17816295713602
 20
-262.3364419917075
 30
0.0
  0
VERTEX
  5
6D
330
65
100
AcDbEntity
  8
cut line
 62
    22
420
 15540260
370
     9
100
AcDbVertex
100
AcDb2dVertex
 10
81.15594209125615
 20
-275.5063530127206
 30
0.0
  0
VERTEX
  5
6E
330
65
100
AcDbEntity
  8
cut line
 62
    22
420
 15540260
370
     9
100
AcDbVertex
100
AcDb2dVertex
 10
76.5936021401398
 20
-278.8281140795985
 30
0.0
  0
VERTEX
  5
6F
330
65
100
AcDbEntity
  8
cut line
 62
    22
420
 15540260
370
     9
100
AcDbVertex
100
AcDb2dVertex
 10
69.11171602004846
 20
-278.8157117358517
 30
0.0
  0
VERTEX
  5
70
330
65
100
AcDbEntity
  8
cut line
 62
    22
420
 15540260
370
     9
100
AcDbVertex
100
AcDb2dVertex
 10
69.0991414215273
 20
-286.3342881228609
 30
0.0
  0
VERTEX
  5
71
330
65
100
AcDbEntity
  8
cut line
 62
    22
420
 15540260
370
     9
100
AcDbVertex
100
AcDb2dVertex
 10
63.96147052437422
 20
-290.9706976269101
 30
0.0
  0
VERTEX
  5
72
330
65
100
AcDbEntity
  8
cut line
 62
    22
420
 15540260
370
     9
100
AcDbVertex
100
AcDb2dVertex
 10
53.84839272742332
 20
-290.9534721494838
 30
0.0
  0
VERTEX
  5
73
330
65
100
AcDbEntity
  8
cut line
 62
    22
420
 15540260
370
     9
100
AcDbVertex
100
AcDb2dVertex
 10
48.75568032635275
 20
-286.2998371680084
 30
0.0
  0
VERTEX
  5
74
330
65
100
AcDbEntity
  8
cut line
 62
    22
420
 15540260
370
     9
100
AcDbVertex
100
AcDb2dVertex
 10
48.76842717964817
 20
-278.7812607809992
 30
0.0
  0
VERTEX
  5
75
330
65
100
AcDbEntity
  8
cut line
 62
    22
420
 15540260
370
     9
100
AcDbVertex
100
AcDb2dVertex
 10
41.24244383734564
 20
-278.7688584372522
 30
0.0
  0
VERTEX
  5
76
330
65
100
AcDbEntity
  8
cut line
 62
    22
420
 15540260
370
     9
100
AcDbVertex
100
AcDb2dVertex
 10
36.67683104551829
 20
-275.3141166846437
 30
0.0
  0
VERTEX
  5
77
330
65
100
AcDbEntity
  8
cut line
 62
    22
420
 15540260
370
     9
100
AcDbVertex
100
AcDb2dVertex
 10
36.69870740184963
 20
-262.3788166661761
 30
0.0
  0
VERTEX
  5
78
330
65
100
AcDbEntity
  8
cut line
 62
    22
420
 15540260
370
     9
100
AcDbVertex
100
AcDb2dVertex
 10
41.27499998968126
 20
-259.4174125870554
 30
0.0
  0
VERTEX
  5
79
330
65
100
AcDbEntity
  8
cut line
 62
    22
420
 15540260
370
     9
100
AcDbVertex
100
AcDb2dVertex
 10
48.80098333198379
 20
-259.4301594403508
 30
0.0
  0
VERTEX
  5
7A
330
65
100
AcDbEntity
  8
cut line
 62
    22
420
 15540260
370
     9
100
AcDbVertex
100
AcDb2dVertex
 10
48.81373018527921
 20
-251.8454372200248
 30
0.0
  0
SEQEND
  5
7B
330
65
100
AcDbEntity
  8
cut line
370
     9
  0
POLYLINE
  5
7C
330
61
100
AcDbEntity
  8
cut line
 62
    22
420
 15540260
370
     9
100
AcDb2dPolyline
 66
     1
 10
0.0
 20
0.0
 30
0.0
  0
VERTEX
  5
7D
330
7C
100
AcDbEntity
  8
cut line
 62
    22
420
 15540260
370
     9
100
AcDbVertex
100
AcDb2dVertex
 10
58.98399656728525
 20
-267.3580131710077
 30
0.0
  0
VERTEX
  5
7E
330
7C
100
AcDbEntity
  8
cut line
 62
    22
420
 15540260
370
     9
100
AcDbVertex
100
AcDb2dVertex
 10
58.97762314063754
 20
-271.1989501275128
 30
0.0
  0
SEQEND
  5
7F
330
7C
100
AcDbEntity
  8
cut line
370
     9
  0
ENDBLK
  5
64
330
61
100
AcDbEntity
  8
0
100
AcDbBlockEnd
  0
BLOCK
  5
82
330
80
100
AcDbEntity
  8
0
100
AcDbBlockBegin
  2
block 4
 70
     0
 71
     0
 10
0.0
 20
0.0
 30
0.0
  3
block 4
  1

  0
POLYLINE
  5
84
330
80
100
AcDbEntity
  8
cut line
 62
    22
420
 15540260
370
     9
100
AcDb2dPolyline
 66
     1
 10
0.0
 20
0.0
 30
0.0
  0
VERTEX
  5
85
330
84
100
AcDbEntity
  8
cut line
 62
    22
420
 15540260
370
     9
100
AcDbVertex
100
AcDb2dVertex
 10
170.8050780822987
 20
-232.4902017647941
 30
0.0
  0
VERTEX
  5
86
330
84
100
AcDbEntity
  8
cut line
 62
    22
420
 15540260
370
     9
100
AcDbVertex
100
AcDb2dVertex
 10
176.0302544047772
 20
-228.2361978596076
 30
0.0
  0
VERTEX
  5
87
330
84
100
AcDbEntity
  8
cut line
 62
    22
420
 15540260
370
     9
100
AcDbVertex
100
AcDb2dVertex
 10
186.1429876921795
 20
-228.2534233370339
 30
0.0
  0
VERTEX
  5
88
330
84
100
AcDbEntity
  8
cut line
 62
    22
420
 15540260
370
     9
100
AcDbVertex
100
AcDb2dVertex
 10
191.148366922699
 20
-232.5246527196466
 30
0.0
  0
VERTEX
  5
89
330
84
100
AcDbEntity
  8
cut line
 62
    22
420
 15540260
370
     9
100
AcDbVertex
100
AcDb2dVertex
 10
191.1356200694036
 20
-240.1093749399727
 30
0.0
  0
VERTEX
  5
8A
330
84
100
AcDbEntity
  8
cut line
 62
    22
420
 15540260
370
     9
100
AcDbVertex
100
AcDb2dVertex
 10
198.6176784442692
 20
-240.1217772837196
 30
0.0
  0
VERTEX
  5
8B
330
84
100
AcDbEntity
  8
cut line
 62
    22
420
 15540260
370
     9
100
AcDbVertex
100
AcDb2dVertex
 10
203.1693385993813
 20
-242.9812065364769
 30
0.0
  0
VERTEX
  5
8C
330
84
100
AcDbEntity
  8
cut line
 62
    22
420
 15540260
370
     9
100
AcDbVertex
100
AcDb2dVertex
 10
203.1469454787272
 20
-256.1514620670386
 30
0.0
  0
VERTEX
  5
8D
330
84
100
AcDbEntity
  8
cut line
 62
    22
420
 15540260
370
     9
100
AcDbVertex
100
AcDb2dVertex
 10
198.5849500371593
 20
-259.4728786243679
 30
0.0
  0
VERTEX
  5
8E
330
84
100
AcDbEntity
  8
cut line
 62
    22
420
 15540260
370
     9
100
AcDbVertex
100
AcDb2dVertex
 10
191.1028916622937
 20
-259.460476280621
 30
0.0
  0
VERTEX
  5
8F
330
84
100
AcDbEntity
  8
cut line
 62
    22
420
 15540260
370
     9
100
AcDbVertex
100
AcDb2dVertex
 10
191.0901448089983
 20
-266.9790526676302
 30
0.0
  0
VERTEX
  5
90
330
84
100
AcDbEntity
  8
cut line
 62
    22
420
 15540260
370
     9
100
AcDbVertex
100
AcDb2dVertex
 10
185.9528184213937
 20
-271.6154621716795
 30
0.0
  0
VERTEX
  5
91
330
84
100
AcDbEntity
  8
cut line
 62
    22
420
 15540260
370
     9
100
AcDbVertex
100
AcDb2dVertex
 10
175.8393961148943
 20
-271.5982366942532
 30
0.0
  0
VERTEX
  5
92
330
84
100
AcDbEntity
  8
cut line
 62
    22
420
 15540260
370
     9
100
AcDbVertex
100
AcDb2dVertex
 10
170.746855968598
 20
-266.9446017127777
 30
0.0
  0
VERTEX
  5
93
330
84
100
AcDbEntity
  8
cut line
 62
    22
420
 15540260
370
     9
100
AcDbVertex
100
AcDb2dVertex
 10
170.7596028218935
 20
-259.4260253257685
 30
0.0
  0
VERTEX
  5
94
330
84
100
AcDbEntity
  8
cut line
 62
    22
420
 15540260
370
     9
100
AcDbVertex
100
AcDb2dVertex
 10
163.2334472248166
 20
-259.4136229820216
 30
0.0
  0
VERTEX
  5
95
330
84
100
AcDbEntity
  8
cut line
 62
    22
420
 15540260
370
     9
100
AcDbVertex
100
AcDb2dVertex
 10
158.6680066877636
 20
-255.9588812294131
 30
0.0
  0
VERTEX
  5
96
330
84
100
AcDbEntity
  8
cut line
 62
    22
420
 15540260
370
     9
100
AcDbVertex
100
AcDb2dVertex
 10
158.6897107893206
 20
-243.023925720494
 30
0.0
  0
VERTEX
  5
97
330
84
100
AcDbEntity
  8
cut line
 62
    22
420
 15540260
370
     9
100
AcDbVertex
100
AcDb2dVertex
 10
163.2661756319265
 20
-240.0625216413733
 30
0.0
  0
VERTEX
  5
98
330
84
100
AcDbEntity
  8
cut line
 62
    22
420
 15540260
370
     9
100
AcDbVertex
100
AcDb2dVertex
 10
170.7923312290033
 20
-240.0749239851202
 30
0.0
  0
VERTEX
  5
99
330
84
100
AcDbEntity
  8
cut line
 62
    22
420
 15540260
370
     9
100
AcDbVertex
100
AcDb2dVertex
 10
170.8050780822987
 20
-232.4902017647941
 30
0.0
  0
SEQEND
  5
9A
330
84
100
AcDbEntity
  8
cut line
370
     9
  0
POLYLINE
  5
9B
330
80
100
AcDbEntity
  8
cut line
 62
    22
420
 15540260
370
     9
100
AcDb2dPolyline
 66
     1
 10
0.0
 20
0.0
 30
0.0
  0
VERTEX
  5
9C
330
9B
100
AcDbEntity
  8
cut line
 62
    22
420
 15540260
370
     9
100
AcDbVertex
100
AcDb2dVertex
 10
180.9749999547563
 20
-248.0027777157771
 30
0.0
  0
VERTEX
  5
9D
330
9B
100
AcDbEntity
  8
cut line
 62
    22
420
 15540260
370
     9
100
AcDbVertex
100
AcDb2dVertex
 10
180.9684542733343
 20
-251.8440591818307
 30
0.0
  0
SEQEND
  5
9E
330
9B
100
AcDbEntity
  8
cut line
370
     9
  0
ENDBLK
  5
83
330
80
100
AcDbEntity
  8
0
100
AcDbBlockEnd
  0
BLOCK
  5
BE
330
BC
100
AcDbEntity
  8
0
100
AcDbBlockBegin
  2
block 5
 70
     0
 71
     0
 10
0.0
 20
0.0
 30
0.0
  3
block 5
  1

  0
INSERT
  5
C1
330
BC
100
AcDbEntity
  8
cut line
100
AcDbBlockReference
  2
block 6
 10
0.0
 20
0.0
 30
0.0
  0
INSERT
  5
C6
330
BC
100
AcDbEntity
  8
cut line
100
AcDbBlockReference
  2
block 7
 10
0.0
 20
0.0
 30
0.0
  0
ENDBLK
  5
BF
330
BC
100
AcDbEntity
  8
0
100
AcDbBlockEnd
  0
BLOCK
  5
C2
330
C0
100
AcDbEntity
  8
0
100
AcDbBlockBegin
  2
block 6
 70
     0
 71
     0
 10
0.0
 20
0.0
 30
0.0
  3
block 6
  1

  0
SPLINE
  5
C4
330
C0
100
AcDbEntity
  8
cut line
 62
    22
420
 15540260
370
     9
100
AcDbSpline
210
0.0
220
0.0
230
1.0
 70
    11
 71
     3
 72
    41
 73
    37
 74
     0
 42
0.0000000001
 43
0.0000000001
 40
0.0
 40
0.0
 40
0.0
 40
0.0
 40
1.0
 40
1.0
 40
1.0
 40
2.0
 40
2.0
 40
2.0
 40
3.0
 40
3.0
 40
3.0
 40
4.0
 40
4.0
 40
4.0
 40
5.0
 40
5.0
 40
5.0
 40
6.0
 40
6.0
 40
6.0
 40
7.0
 40
7.0
 40
7.0
 40
8.0
 40
8.0
 40
8.0
 40
9.0
 40
9.0
 40
9.0
 40
10.0
 40
10.0
 40
10.0
 40
11.0
 40
11.0
 40
11.0
 40
12.0
 40
12.0
 40
12.0
 40
12.0
 10
31.37517360326732
 20
-141.4890380505653
 30
0.0
 10
31.37517360326732
 20
-141.4890380505653
 30
0.0
 10
31.37517360326732
 20
-130.657830099714
 30
0.0
 10
31.37517360326732
 20
-130.657830099714
 30
0.0
 10
31.37517360326732
 20
-127.544669564468
 30
0.0
 10
29.45970051346841
 20
-124.8826442830155
 30
0.0
 10
26.74427625199449
 20
-123.7762518679275
 30
0.0
 10
26.74427625199449
 20
-123.7762518679275
 30
0.0
 10
26.74427625199449
 20
-114.5936943615426
 30
0.0
 10
26.74427625199449
 20
-114.5936943615426
 30
0.0
 10
26.74427625199449
 20
-114.5936943615426
 30
0.0
 10
21.23315700424032
 20
-114.5936943615426
 30
0.0
 10
21.23315700424032
 20
-114.5936943615426
 30
0.0
 10
21.23315700424032
 20
-114.5936943615426
 30
0.0
 10
21.23315700424032
 20
-123.7433512060433
 30
0.0
 10
21.23315700424032
 20
-123.7433512060433
 30
0.0
 10
18.470879444167
 20
-124.8273505004772
 30
0.0
 10
16.51199815125394
 20
-127.5109076287126
 30
0.0
 10
16.51199815125394
 20
-130.657830099714
 30
0.0
 10
16.51199815125394
 20
-130.657830099714
 30
0.0
 10
16.56953124585762
 20
-141.3832736191681
 30
0.0
 10
16.56953124585762
 20
-141.3832736191681
 30
0.0
 10
16.56953124585762
 20
-141.3832736191681
 30
0.0
 10
17.19447156688194
 20
-155.1250704907326
 30
0.0
 10
24.10740016758426
 20
-153.4855495493022
 30
0.0
 10
31.01998425873806
 20
-151.8460286078718
 30
0.0
 10
25.59016926443579
 20
-147.560329824221
 30
0.0
 10
27.66652831339587
 20
-146.856841326133
 30
0.0
 10
29.74288736235595
 20
-146.153352828045
 30
0.0
 10
29.43386229732904
 20
-149.089952219672
 30
0.0
 10
31.06787108598303
 20
-148.7285617032693
 30
0.0
 10
32.70222438418556
 20
-148.3675156964151
 30
0.0
 10
33.20658636322613
 20
-147.9971679317507
 30
0.0
 10
32.35426974017533
 20
-145.2362684098715
 30
0.0
 10
32.00769313435919
 20
-144.1145453198741
 30
0.0
 10
31.37517360326732
 20
-141.4890380505653
 30
0.0
 10
31.37517360326732
 20
-141.4890380505653
 30
0.0
  0
ENDBLK
  5
C3
330
C0
100
AcDbEntity
  8
0
100
AcDbBlockEnd
  0
BLOCK
  5
C7
330
C5
100
AcDbEntity
  8
0
100
AcDbBlockBegin
  2
block 7
 70
     0
 71
     0
 10
0.0
 20
0.0
 30
0.0
  3
block 7
  1

  0
SPLINE
  5
C9
330
C5
100
AcDbEntity
  8
cut line
 62
    22
420
 15540260
370
     9
100
AcDbSpline
210
0.0
220
0.0
230
1.0
 70
    11
 71
     3
 72
    41
 73
    37
 74
     0
 42
0.0000000001
 43
0.0000000001
 40
0.0
 40
0.0
 40
0.0
 40
0.0
 40
1.0
 40
1.0
 40
1.0
 40
2.0
 40
2.0
 40
2.0
 40
3.0
 40
3.0
 40
3.0
 40
4.0
 40
4.0
 40
4.0
 40
5.0
 40
5.0
 40
5.0
 40
6.0
 40
6.0
 40
6.0
 40
7.0
 40
7.0
 40
7.0
 40
8.0
 40
8.0
 40
8.0
 40
9.0
 40
9.0
 40
9.0
 40
10.0
 40
10.0
 40
10.0
 40
11.0
 40
11.0
 40
11.0
 40
12.0
 40
12.0
 40
12.0
 40
12.0
 10
18.33031954836881
 20
-92.25035533718047
 30
0.0
 10
18.33031954836881
 20
-92.25035533718047
 30
0.0
 10
18.33031954836881
 20
-81.41914738632924
 30
0.0
 10
18.33031954836881
 20
-81.41914738632924
 30
0.0
 10
18.33031954836881
 20
-78.30598685108323
 30
0.0
 10
20.24579263816772
 20
-75.64396156963068
 30
0.0
 10
22.96121689964164
 20
-74.5375691545427
 30
0.0
 10
22.96121689964164
 20
-74.5375691545427
 30
0.0
 10
22.96121689964164
 20
-65.35501164815778
 30
0.0
 10
22.96121689964164
 20
-65.35501164815778
 30
0.0
 10
22.96121689964164
 20
-65.35501164815778
 30
0.0
 10
28.47233614739581
 20
-65.35501164815778
 30
0.0
 10
28.47233614739581
 20
-65.35501164815778
 30
0.0
 10
28.47233614739581
 20
-65.35501164815778
 30
0.0
 10
28.47233614739581
 20
-74.50466849265855
 30
0.0
 10
28.47233614739581
 20
-74.50466849265855
 30
0.0
 10
31.23461370746913
 20
-75.58866778709242
 30
0.0
 10
33.19349500038219
 20
-78.27222491532778
 30
0.0
 10
33.19349500038219
 20
-81.41914738632924
 30
0.0
 10
33.19349500038219
 20
-81.41914738632924
 30
0.0
 10
33.13596190577851
 20
-92.1445909057833
 30
0.0
 10
33.13596190577851
 20
-92.1445909057833
 30
0.0
 10
33.13596190577851
 20
-92.1445909057833
 30
0.0
 10
32.51102158475419
 20
-105.8862155225736
 30
0.0
 10
25.59809298405187
 20
-104.2468668359175
 30
0.0
 10
18.68550889289807
 20
-102.6075181492613
 30
0.0
 10
24.11532388720034
 20
-98.32164711083625
 30
0.0
 10
22.03896483824026
 20
-97.6183308675225
 30
0.0
 10
19.96260578928018
 20
-96.91467011466023
 30
0.0
 10
20.27163085430709
 20
-99.85126950628718
 30
0.0
 10
18.63762206565309
 20
-99.48987898988447
 30
0.0
 10
17.00326876745057
 20
-99.12883298303029
 30
0.0
 10
16.49890678841
 20
-98.75848521836593
 30
0.0
 10
17.35122341146081
 20
-95.99758569648672
 30
0.0
 10
17.69780001727694
 20
-94.87586260648938
 30
0.0
 10
18.33031954836881
 20
-92.25035533718047
 30
0.0
 10
18.33031954836881
 20
-92.25035533718047
 30
0.0
  0
ENDBLK
  5
C8
330
C5
100
AcDbEntity
  8
0
100
AcDbBlockEnd
  0
BLOCK
  5
17F
330
17D
100
AcDbEntity
  8
0
100
AcDbBlockBegin
  2
block 8
 70
     0
 71
     0
 10
0.0
 20
0.0
 30
0.0
  3
block 8
  1

  0
POLYLINE
  5
181
330
17D
100
AcDbEntity
  8
fold line
 62
   156
420
    18551
370
     9
100
AcDb2dPolyline
 66
     1
 10
0.0
 20
0.0
 30
0.0
  0
VERTEX
  5
182
330
181
100
AcDbEntity
  8
fold line
 62
   156
420
    18551
370
     9
100
AcDbVertex
100
AcDb2dVertex
 10
145.1239582970524
 20
-42.9620632488081
 30
0.0
  0
VERTEX
  5
183
330
181
100
AcDbEntity
  8
fold line
 62
   156
420
    18551
370
     9
100
AcDbVertex
100
AcDb2dVertex
 10
178.240972177662
 20
-42.9620632488081
 30
0.0
  0
SEQEND
  5
184
330
181
100
AcDbEntity
  8
fold line
370
     9
  0
POLYLINE
  5
185
330
17D
100
AcDbEntity
  8
fold line
 62
   156
420
    18551
370
     9
100
AcDb2dPolyline
 66
     1
 10
0.0
 20
0.0
 30
0.0
  0
VERTEX
  5
186
330
185
100
AcDbEntity
  8
fold line
 62
   156
420
    18551
370
     9
100
AcDbVertex
100
AcDb2dVertex
 10
145.1239582970524
 20
-57.866924356193
 30
0.0
  0
VERTEX
  5
187
330
185
100
AcDbEntity
  8
fold line
 62
   156
420
    18551
370
     9
100
AcDbVertex
100
AcDb2dVertex
 10
178.240972177662
 20
-57.866924356193
 30
0.0
  0
SEQEND
  5
188
330
185
100
AcDbEntity
  8
fold line
370
     9
  0
POLYLINE
  5
189
330
17D
100
AcDbEntity
  8
fold line
 62
   156
420
    18551
370
     9
100
AcDb2dPolyline
 66
     1
 10
0.0
 20
0.0
 30
0.0
  0
VERTEX
  5
18A
330
189
100
AcDbEntity
  8
fold line
 62
   156
420
    18551
370
     9
100
AcDbVertex
100
AcDb2dVertex
 10
145.1239582970524
 20
-105.9328965663987
 30
0.0
  0
VERTEX
  5
18B
330
189
100
AcDbEntity
  8
fold line
 62
   156
420
    18551
370
     9
100
AcDbVertex
100
AcDb2dVertex
 10
178.240972177662
 20
-105.9328965663987
 30
0.0
  0
SEQEND
  5
18C
330
189
100
AcDbEntity
  8
fold line
370
     9
  0
POLYLINE
  5
18D
330
17D
100
AcDbEntity
  8
fold line
 62
   156
420
    18551
370
     9
100
AcDb2dPolyline
 66
     1
 10
0.0
 20
0.0
 30
0.0
  0
VERTEX
  5
18E
330
18D
100
AcDbEntity
  8
fold line
 62
   156
420
    18551
370
     9
100
AcDbVertex
100
AcDb2dVertex
 10
191.712673563183
 20
-93.8282090694249
 30
0.0
  0
VERTEX
  5
18F
330
18D
100
AcDbEntity
  8
fold line
 62
   156
420
    18551
370
     9
100
AcDbVertex
100
AcDb2dVertex
 10
178.0428791872601
 20
-91.77768823660419
 30
0.0
  0
VERTEX
  5
190
330
18D
100
AcDbEntity
  8
fold line
 62
   156
420
    18551
370
     9
100
AcDbVertex
100
AcDb2dVertex
 10
145.4105902414251
 20
-91.77768823660419
 30
0.0
  0
VERTEX
  5
191
330
18D
100
AcDbEntity
  8
fold line
 62
   156
420
    18551
370
     9
100
AcDbVertex
100
AcDb2dVertex
 10
131.564062467109
 20
-93.8282090694249
 30
0.0
  0
SEQEND
  5
192
330
18D
100
AcDbEntity
  8
fold line
370
     9
  0
POLYLINE
  5
193
330
17D
100
AcDbEntity
  8
fold line
 62
   156
420
    18551
370
     9
100
AcDb2dPolyline
 66
     1
 10
0.0
 20
0.0
 30
0.0
  0
VERTEX
  5
194
330
193
100
AcDbEntity
  8
fold line
 62
   156
420
    18551
370
     9
100
AcDbVertex
100
AcDb2dVertex
 10
198.9446180058194
 20
-63.85002168542638
 30
0.0
  0
VERTEX
  5
195
330
193
100
AcDbEntity
  8
fold line
 62
   156
420
    18551
370
     9
100
AcDbVertex
100
AcDb2dVertex
 10
184.1644693550006
 20
-61.65239527538552
 30
0.0
  0
VERTEX
  5
196
330
193
100
AcDbEntity
  8
fold line
 62
   156
420
    18551
370
     9
100
AcDbVertex
100
AcDb2dVertex
 10
178.0501138877791
 20
-65.80442435420862
 30
0.0
  0
VERTEX
  5
197
330
193
100
AcDbEntity
  8
fold line
 62
   156
420
    18551
370
     9
100
AcDbVertex
100
AcDb2dVertex
 10
145.4105902414251
 20
-65.80442435420862
 30
0.0
  0
VERTEX
  5
198
330
193
100
AcDbEntity
  8
fold line
 62
   156
420
    18551
370
     9
100
AcDbVertex
100
AcDb2dVertex
 10
139.3251735762798
 20
-61.59313963303921
 30
0.0
  0
VERTEX
  5
199
330
193
100
AcDbEntity
  8
fold line
 62
   156
420
    18551
370
     9
100
AcDbVertex
100
AcDb2dVertex
 10
124.5526041355285
 20
-63.73185491028232
 30
0.0
  0
SEQEND
  5
19A
330
193
100
AcDbEntity
  8
fold line
370
     9
  0
POLYLINE
  5
19B
330
17D
100
AcDbEntity
  8
fold line
 62
   156
420
    18551
370
     9
100
AcDb2dPolyline
 66
     1
 10
0.0
 20
0.0
 30
0.0
  0
VERTEX
  5
19C
330
19B
100
AcDbEntity
  8
fold line
 62
   156
420
    18551
370
     9
100
AcDbVertex
100
AcDb2dVertex
 10
145.4216145469779
 20
-65.83749727086702
 30
0.0
  0
VERTEX
  5
19D
330
19B
100
AcDbEntity
  8
fold line
 62
   156
420
    18551
370
     9
100
AcDbVertex
100
AcDb2dVertex
 10
145.4216145469779
 20
-91.81076115326259
 30
0.0
  0
SEQEND
  5
19E
330
19B
100
AcDbEntity
  8
fold line
370
     9
  0
POLYLINE
  5
19F
330
17D
100
AcDbEntity
  8
fold line
 62
   156
420
    18551
370
     9
100
AcDb2dPolyline
 66
     1
 10
0.0
 20
0.0
 30
0.0
  0
VERTEX
  5
1A0
330
19F
100
AcDbEntity
  8
fold line
 62
   156
420
    18551
370
     9
100
AcDbVertex
100
AcDb2dVertex
 10
178.0501138877791
 20
-65.80442435420862
 30
0.0
  0
VERTEX
  5
1A1
330
19F
100
AcDbEntity
  8
fold line
 62
   156
420
    18551
370
     9
100
AcDbVertex
100
AcDb2dVertex
 10
178.0501138877791
 20
-91.77768823660419
 30
0.0
  0
SEQEND
  5
1A2
330
19F
100
AcDbEntity
  8
fold line
370
     9
  0
ENDBLK
  5
180
330
17D
100
AcDbEntity
  8
0
100
AcDbBlockEnd
  0
BLOCK
  5
1A5
330
1A3
100
AcDbEntity
  8
0
100
AcDbBlockBegin
  2
block 9
 70
     0
 71
     0
 10
0.0
 20
0.0
 30
0.0
  3
block 9
  1

  0
POLYLINE
  5
1A7
330
1A3
100
AcDbEntity
  8
fold line
 62
   156
420
    18551
370
     9
100
AcDb2dPolyline
 66
     1
 10
0.0
 20
0.0
 30
0.0
  0
VERTEX
  5
1A8
330
1A7
100
AcDbEntity
  8
fold line
 62
   156
420
    18551
370
     9
100
AcDbVertex
100
AcDb2dVertex
 10
48.56378850782433
 20
-251.8743760221009
 30
0.0
  0
VERTEX
  5
1A9
330
1A7
100
AcDbEntity
  8
fold line
 62
   156
420
    18551
370
     9
100
AcDbVertex
100
AcDb2dVertex
 10
69.31876625871197
 20
-251.9095159960504
 30
0.0
  0
SEQEND
  5
1AA
330
1A7
100
AcDbEntity
  8
fold line
370
     9
  0
POLYLINE
  5
1AB
330
1A3
100
AcDbEntity
  8
fold line
 62
   156
420
    18551
370
     9
100
AcDb2dPolyline
 66
     1
 10
0.0
 20
0.0
 30
0.0
  0
VERTEX
  5
1AC
330
1AB
100
AcDbEntity
  8
fold line
 62
   156
420
    18551
370
     9
100
AcDbVertex
100
AcDb2dVertex
 10
48.50573864889788
 20
-286.3287759700845
 30
0.0
  0
VERTEX
  5
1AD
330
1AB
100
AcDbEntity
  8
fold line
 62
   156
420
    18551
370
     9
100
AcDbVertex
100
AcDb2dVertex
 10
69.26088865455978
 20
-286.363915944034
 30
0.0
  0
SEQEND
  5
1AE
330
1AB
100
AcDbEntity
  8
fold line
370
     9
  0
POLYLINE
  5
1AF
330
1A3
100
AcDbEntity
  8
fold line
 62
   156
420
    18551
370
     9
100
AcDb2dPolyline
 66
     1
 10
0.0
 20
0.0
 30
0.0
  0
VERTEX
  5
1B0
330
1AF
100
AcDbEntity
  8
fold line
 62
   156
420
    18551
370
     9
100
AcDbVertex
100
AcDb2dVertex
 10
69.11171602004846
 20
-278.8101995830752
 30
0.0
  0
VERTEX
  5
1B1
330
1AF
100
AcDbEntity
  8
fold line
 62
   156
420
    18551
370
     9
100
AcDbVertex
100
AcDb2dVertex
 10
48.77204452990769
 20
-278.7757486282227
 30
0.0
  0
VERTEX
  5
1B2
330
1AF
100
AcDbEntity
  8
fold line
 62
   156
420
    18551
370
     9
100
AcDbVertex
100
AcDb2dVertex
 10
48.8046006822433
 20
-259.4336045358361
 30
0.0
  0
VERTEX
  5
1B3
330
1AF
100
AcDbEntity
  8
fold line
 62
   156
420
    18551
370
     9
100
AcDbVertex
100
AcDb2dVertex
 10
69.14444442715833
 20
-259.4680554906885
 30
0.0
  0
VERTEX
  5
1B4
330
1AF
100
AcDbEntity
  8
fold line
 62
   156
420
    18551
370
     9
100
AcDbVertex
100
AcDb2dVertex
 10
69.11171602004846
 20
-278.8101995830752
 30
0.0
  0
SEQEND
  5
1B5
330
1AF
100
AcDbEntity
  8
fold line
370
     9
  0
POLYLINE
  5
1B6
330
1A3
100
AcDbEntity
  8
fold line
 62
   156
420
    18551
370
     9
100
AcDb2dPolyline
 66
     1
 10
0.0
 20
0.0
 30
0.0
  0
VERTEX
  5
1B7
330
1B6
100
AcDbEntity
  8
fold line
 62
   156
420
    18551
370
     9
100
AcDbVertex
100
AcDb2dVertex
 10
41.28275145452307
 20
-259.211740386586
 30
0.0
  0
VERTEX
  5
1B8
330
1B6
100
AcDbEntity
  8
fold line
 62
   156
420
    18551
370
     9
100
AcDbVertex
100
AcDb2dVertex
 10
41.24898951876762
 20
-279.2167208503347
 30
0.0
  0
SEQEND
  5
1B9
330
1B6
100
AcDbEntity
  8
fold line
370
     9
  0
POLYLINE
  5
1BA
330
1A3
100
AcDbEntity
  8
fold line
 62
   156
420
    18551
370
     9
100
AcDb2dPolyline
 66
     1
 10
0.0
 20
0.0
 30
0.0
  0
VERTEX
  5
1BB
330
1BA
100
AcDbEntity
  8
fold line
 62
   156
420
    18551
370
     9
100
AcDbVertex
100
AcDb2dVertex
 10
76.63752710757673
 20
-259.2875324872614
 30
0.0
  0
VERTEX
  5
1BC
330
1BA
100
AcDbEntity
  8
fold line
 62
   156
420
    18551
370
     9
100
AcDbVertex
100
AcDb2dVertex
 10
76.60393742659555
 20
-279.0472221524604
 30
0.0
  0
SEQEND
  5
1BD
330
1BA
100
AcDbEntity
  8
fold line
370
     9
  0
ENDBLK
  5
1A6
330
1A3
100
AcDbEntity
  8
0
100
AcDbBlockEnd
  0
BLOCK
  5
1C0
330
1BE
100
AcDbEntity
  8
0
100
AcDbBlockBegin
  2
block 10
 70
     0
 71
     0
 10
0.0
 20
0.0
 30
0.0
  3
block 10
  1

  0
POLYLINE
  5
1C2
330
1BE
100
AcDbEntity
  8
fold line
 62
   156
420
    18551
370
     9
100
AcDb2dPolyline
 66
     1
 10
0.0
 20
0.0
 30
0.0
  0
VERTEX
  5
1C3
330
1C2
100
AcDbEntity
  8
fold line
 62
   156
420
    18551
370
     9
100
AcDbVertex
100
AcDb2dVertex
 10
170.5549641500696
 20
-232.5191405668702
 30
0.0
  0
VERTEX
  5
1C4
330
1C2
100
AcDbEntity
  8
fold line
 62
   156
420
    18551
370
     9
100
AcDbVertex
100
AcDb2dVertex
 10
191.3102864105058
 20
-232.5542805408198
 30
0.0
  0
SEQEND
  5
1C5
330
1C2
100
AcDbEntity
  8
fold line
370
     9
  0
POLYLINE
  5
1C6
330
1BE
100
AcDbEntity
  8
fold line
 62
   156
420
    18551
370
     9
100
AcDb2dPolyline
 66
     1
 10
0.0
 20
0.0
 30
0.0
  0
VERTEX
  5
1C7
330
1C6
100
AcDbEntity
  8
fold line
 62
   156
420
    18551
370
     9
100
AcDbVertex
100
AcDb2dVertex
 10
170.4967420363689
 20
-266.9735405148538
 30
0.0
  0
VERTEX
  5
1C8
330
1C6
100
AcDbEntity
  8
fold line
 62
   156
420
    18551
370
     9
100
AcDbVertex
100
AcDb2dVertex
 10
191.2520642968051
 20
-267.0086804888034
 30
0.0
  0
SEQEND
  5
1C9
330
1C6
100
AcDbEntity
  8
fold line
370
     9
  0
POLYLINE
  5
1CA
330
1BE
100
AcDbEntity
  8
fold line
 62
   156
420
    18551
370
     9
100
AcDb2dPolyline
 66
     1
 10
0.0
 20
0.0
 30
0.0
  0
VERTEX
  5
1CB
330
1CA
100
AcDbEntity
  8
fold line
 62
   156
420
    18551
370
     9
100
AcDbVertex
100
AcDb2dVertex
 10
191.1028916622937
 20
-259.4549641278446
 30
0.0
  0
VERTEX
  5
1CC
330
1CA
100
AcDbEntity
  8
fold line
 62
   156
420
    18551
370
     9
100
AcDbVertex
100
AcDb2dVertex
 10
170.7630479173787
 20
-259.4205131729921
 30
0.0
  0
VERTEX
  5
1CD
330
1CA
100
AcDbEntity
  8
fold line
 62
   156
420
    18551
370
     9
100
AcDbVertex
100
AcDb2dVertex
 10
170.7957763244886
 20
-240.0783690806054
 30
0.0
  0
VERTEX
  5
1CE
330
1CA
100
AcDbEntity
  8
fold line
 62
   156
420
    18551
370
     9
100
AcDbVertex
100
AcDb2dVertex
 10
191.1356200694036
 20
-240.1128200354579
 30
0.0
  0
VERTEX
  5
1CF
330
1CA
100
AcDbEntity
  8
fold line
 62
   156
420
    18551
370
     9
100
AcDbVertex
100
AcDb2dVertex
 10
191.1028916622937
 20
-259.4549641278446
 30
0.0
  0
SEQEND
  5
1D0
330
1CA
100
AcDbEntity
  8
fold line
370
     9
  0
POLYLINE
  5
1D1
330
1BE
100
AcDbEntity
  8
fold line
 62
   156
420
    18551
370
     9
100
AcDb2dPolyline
 66
     1
 10
0.0
 20
0.0
 30
0.0
  0
VERTEX
  5
1D2
330
1D1
100
AcDbEntity
  8
fold line
 62
   156
420
    18551
370
     9
100
AcDbVertex
100
AcDb2dVertex
 10
163.2740993515426
 20
-239.8565049313553
 30
0.0
  0
VERTEX
  5
1D3
330
1D1
100
AcDbEntity
  8
fold line
 62
   156
420
    18551
370
     9
100
AcDbVertex
100
AcDb2dVertex
 10
163.2403374157871
 20
-259.8614853951041
 30
0.0
  0
SEQEND
  5
1D4
330
1D1
100
AcDbEntity
  8
fold line
370
     9
  0
POLYLINE
  5
1D5
330
1BE
100
AcDbEntity
  8
fold line
 62
   156
420
    18551
370
     9
100
AcDb2dPolyline
 66
     1
 10
0.0
 20
0.0
 30
0.0
  0
VERTEX
  5
1D6
330
1D5
100
AcDbEntity
  8
fold line
 62
   156
420
    18551
370
     9
100
AcDbVertex
100
AcDb2dVertex
 10
198.6290472593705
 20
-239.9322970320308
 30
0.0
  0
VERTEX
  5
1D7
330
1D5
100
AcDbEntity
  8
fold line
 62
   156
420
    18551
370
     9
100
AcDbVertex
100
AcDb2dVertex
 10
198.5952853236151
 20
-259.9379665148766
 30
0.0
  0
SEQEND
  5
1D8
330
1D5
100
AcDbEntity
  8
fold line
370
     9
  0
ENDBLK
  5
1C1
330
1BE
100
AcDbEntity
  8
0
100
AcDbBlockEnd
  0
BLOCK
  5
1DB
330
1D9
100
AcDbEntity
  8
0
100
AcDbBlockBegin
  2
block 11
 70
     0
 71
     0
 10
0.0
 20
0.0
 30
0.0
  3
block 11
  1

  0
POLYLINE
  5
1DD
330
1D9
100
AcDbEntity
  8
fold line
 62
   156
420
    18551
370
     9
100
AcDb2dPolyline
 66
     1
 10
0.0
 20
0.0
 30
0.0
  0
VERTEX
  5
1DE
330
1DD
100
AcDbEntity
  8
fold line
 62
   156
420
    18551
370
     9
100
AcDbVertex
100
AcDb2dVertex
 10
60.91600611541336
 20
-110.4676757536331
 30
0.0
  0
VERTEX
  5
1DF
330
1DD
100
AcDbEntity
  8
fold line
 62
   156
420
    18551
370
     9
100
AcDbVertex
100
AcDb2dVertex
 10
116.9158609733752
 20
-99.97994382266127
 30
0.0
  0
SEQEND
  5
1E0
330
1DD
100
AcDbEntity
  8
fold line
370
     9
  0
POLYLINE
  5
1E1
330
1D9
100
AcDbEntity
  8
fold line
 62
   156
420
    18551
370
     9
100
AcDb2dPolyline
 66
     1
 10
0.0
 20
0.0
 30
0.0
  0
VERTEX
  5
1E2
330
1E1
100
AcDbEntity
  8
fold line
 62
   156
420
    18551
370
     9
100
AcDbVertex
100
AcDb2dVertex
 10
92.14149031984658
 20
-277.8373046180407
 30
0.0
  0
VERTEX
  5
1E3
330
1E1
100
AcDbEntity
  8
fold line
 62
   156
420
    18551
370
     9
100
AcDbVertex
100
AcDb2dVertex
 10
148.1415174325827
 20
-267.3494004322946
 30
0.0
  0
SEQEND
  5
1E4
330
1E1
100
AcDbEntity
  8
fold line
370
     9
  0
POLYLINE
  5
1E5
330
1D9
100
AcDbEntity
  8
fold line
 62
   156
420
    18551
370
     9
100
AcDb2dPolyline
 66
     1
 10
0.0
 20
0.0
 30
0.0
  0
VERTEX
  5
1E6
330
1E5
100
AcDbEntity
  8
fold line
 62
   156
420
    18551
370
     9
100
AcDbVertex
100
AcDb2dVertex
 10
194.4370550729185
 20
-199.6460394466163
 30
0.0
  0
VERTEX
  5
1E7
330
1E5
100
AcDbEntity
  8
fold line
 62
   156
420
    18551
370
     9
100
AcDbVertex
100
AcDb2dVertex
 10
24.6711900437454
 20
-231.44013666089
 30
0.0
  0
VERTEX
  5
1E8
330
1E5
100
AcDbEntity
  8
fold line
 62
   156
420
    18551
370
     9
100
AcDbVertex
100
AcDb2dVertex
 10
14.68885362045973
 20
-178.137963822653
 30
0.0
  0
VERTEX
  5
1E9
330
1E5
100
AcDbEntity
  8
fold line
 62
   156
420
    18551
370
     9
100
AcDbVertex
100
AcDb2dVertex
 10
184.4548909044071
 20
-146.3440388631536
 30
0.0
  0
VERTEX
  5
1EA
330
1E5
100
AcDbEntity
  8
fold line
 62
   156
420
    18551
370
     9
100
AcDbVertex
100
AcDb2dVertex
 10
194.4370550729185
 20
-199.6460394466163
 30
0.0
  0
SEQEND
  5
1EB
330
1E5
100
AcDbEntity
  8
fold line
370
     9
  0
POLYLINE
  5
1EC
330
1D9
100
AcDbEntity
  8
fold line
 62
   156
420
    18551
370
     9
100
AcDb2dPolyline
 66
     1
 10
0.0
 20
0.0
 30
0.0
  0
VERTEX
  5
1ED
330
1EC
100
AcDbEntity
  8
fold line
 62
   156
420
    18551
370
     9
100
AcDbVertex
100
AcDb2dVertex
 10
71.66746010578106
 20
-167.4168266725555
 30
0.0
  0
VERTEX
  5
1EE
330
1EC
100
AcDbEntity
  8
fold line
 62
   156
420
    18551
370
     9
100
AcDbVertex
100
AcDb2dVertex
 10
81.65014103861525
 20
-220.7183104916954
 30
0.0
  0
SEQEND
  5
1EF
330
1EC
100
AcDbEntity
  8
fold line
370
     9
  0
POLYLINE
  5
1F0
330
1D9
100
AcDbEntity
  8
fold line
 62
   156
420
    18551
370
     9
100
AcDb2dPolyline
 66
     1
 10
0.0
 20
0.0
 30
0.0
  0
VERTEX
  5
1F1
330
1F0
100
AcDbEntity
  8
fold line
 62
   156
420
    18551
370
     9
100
AcDbVertex
100
AcDb2dVertex
 10
127.4509629672692
 20
-156.9692301039869
 30
0.0
  0
VERTEX
  5
1F2
330
1F0
100
AcDbEntity
  8
fold line
 62
   156
420
    18551
370
     9
100
AcDbVertex
100
AcDb2dVertex
 10
137.4334716453291
 20
-210.2710584326753
 30
0.0
  0
SEQEND
  5
1F3
330
1F0
100
AcDbEntity
  8
fold line
370
     9
  0
ENDBLK
  5
1DC
330
1D9
100
AcDbEntity
  8
0
100
AcDbBlockEnd
  0
ENDSEC
  0
SECTION
  2
ENTITIES
  0
POLYLINE
  5
3C
330
1F
100
AcDbEntity
  8
cut line
 62
    22
420
 15540260
370
     9
100
AcDb2dPolyline
 66
     1
 10
0.0
 20
0.0
 30
0.0
  0
VERTEX
  5
3D
330
3C
100
AcDbEntity
  8
cut line
 62
    22
420
 15540260
370
     9
100
AcDbVertex
100
AcDb2dVertex
 10
153.5465277393912
 20
-37.69244519456995
 30
0.0
  0
VERTEX
  5
3E
330
3C
100
AcDbEntity
  8
cut line
 62
    22
420
 15540260
370
     9
100
AcDbVertex
100
AcDb2dVertex
 10
169.8624999575344
 20
-37.69244519456995
 30
0.0
  0
VERTEX
  5
3F
330
3C
100
AcDbEntity
  8
cut line
 62
    22
420
 15540260
370
     9
100
AcDbVertex
100
AcDb2dVertex
 10
178.0428791872601
 20
-42.95482854828907
 30
0.0
  0
VERTEX
  5
40
330
3C
100
AcDbEntity
  8
cut line
 62
    22
420
 15540260
370
     9
100
AcDbVertex
100
AcDb2dVertex
 10
178.0425346777116
 20
-65.80649141149976
 30
0.0
  0
VERTEX
  5
41
330
3C
100
AcDbEntity
  8
cut line
 62
    22
420
 15540260
370
     9
100
AcDbVertex
100
AcDb2dVertex
 10
178.5055555109292
 20
-63.09244518821995
 30
0.0
  0
VERTEX
  5
42
330
3C
100
AcDbEntity
  8
cut line
 62
    22
420
 15540260
370
     9
100
AcDbVertex
100
AcDb2dVertex
 10
181.0631943991787
 20
-61.24036185534963
 30
0.0
  0
VERTEX
  5
43
330
3C
100
AcDbEntity
  8
cut line
 62
    22
420
 15540260
370
     9
100
AcDbVertex
100
AcDb2dVertex
 10
184.1720485650681
 20
-61.63172470247402
 30
0.0
  0
VERTEX
  5
44
330
3C
100
AcDbEntity
  8
cut line
 62
    22
420
 15540260
370
     9
100
AcDbVertex
100
AcDb2dVertex
 10
188.0601833297211
 20
-58.8887396771181
 30
0.0
  0
VERTEX
  5
45
330
3C
100
AcDbEntity
  8
cut line
 62
    22
420
 15540260
370
     9
100
AcDbVertex
100
AcDb2dVertex
 10
195.9391167044874
 20
-59.94707301018685
 30
0.0
  0
VERTEX
  5
46
330
3C
100
AcDbEntity
  8
cut line
 62
    22
420
 15540260
370
     9
100
AcDbVertex
100
AcDb2dVertex
 10
198.9501301585958
 20
-63.84209796581031
 30
0.0
  0
VERTEX
  5
47
330
3C
100
AcDbEntity
  8
cut line
 62
    22
420
 15540260
370
     9
100
AcDbVertex
100
AcDb2dVertex
 10
191.7350666838371
 20
-93.8723062916361
 30
0.0
  0
VERTEX
  5
48
330
3C
100
AcDbEntity
  8
cut line
 62
    22
420
 15540260
370
     9
100
AcDbVertex
100
AcDb2dVertex
 10
187.7074055520315
 20
-97.10621742364012
 30
0.0
  0
VERTEX
  5
49
330
3C
100
AcDbEntity
  8
cut line
 62
    22
420
 15540260
370
     9
100
AcDbVertex
100
AcDb2dVertex
 10
180.8868055103339
 20
-95.8125840689288
 30
0.0
  0
VERTEX
  5
4A
330
3C
100
AcDbEntity
  8
cut line
 62
    22
420
 15540260
370
     9
100
AcDbVertex
100
AcDb2dVertex
 10
178.0425346777116
 20
-91.79611949745028
 30
0.0
  0
VERTEX
  5
4B
330
3C
100
AcDbEntity
  8
cut line
 62
    22
420
 15540260
370
     9
100
AcDbVertex
100
AcDb2dVertex
 10
178.0425346777116
 20
-105.9311740186561
 30
0.0
  0
VERTEX
  5
4C
330
3C
100
AcDbEntity
  8
cut line
 62
    22
420
 15540260
370
     9
100
AcDbVertex
100
AcDb2dVertex
 10
169.774305513112
 20
-111.2026868754111
 30
0.0
  0
VERTEX
  5
4D
330
3C
100
AcDbEntity
  8
cut line
 62
    22
420
 15540260
370
     9
100
AcDbVertex
100
AcDb2dVertex
 10
153.4583332949688
 20
-111.2025146206369
 30
0.0
  0
VERTEX
  5
4E
330
3C
100
AcDbEntity
  8
cut line
 62
    22
420
 15540260
370
     9
100
AcDbVertex
100
AcDb2dVertex
 10
145.4147243560074
 20
-105.9311740186561
 30
0.0
  0
VERTEX
  5
4F
330
3C
100
AcDbEntity
  8
cut line
 62
    22
420
 15540260
370
     9
100
AcDbVertex
100
AcDb2dVertex
 10
145.4143798464589
 20
-91.79629175222455
 30
0.0
  0
VERTEX
  5
50
330
3C
100
AcDbEntity
  8
cut line
 62
    22
420
 15540260
370
     9
100
AcDbVertex
100
AcDb2dVertex
 10
142.1990722300752
 20
-95.45980629123922
 30
0.0
  0
VERTEX
  5
51
330
3C
100
AcDbEntity
  8
cut line
 62
    22
420
 15540260
370
     9
100
AcDbVertex
100
AcDb2dVertex
 10
135.2613389418791
 20
-96.63596188990351
 30
0.0
  0
VERTEX
  5
52
330
3C
100
AcDbEntity
  8
cut line
 62
    22
420
 15540260
370
     9
100
AcDbVertex
100
AcDb2dVertex
 10
131.5792208872441
 20
-93.857147871501
 30
0.0
  0
VERTEX
  5
53
330
3C
100
AcDbEntity
  8
cut line
 62
    22
420
 15540260
370
     9
100
AcDbVertex
100
AcDb2dVertex
 10
124.5526041355285
 20
-63.70980629917672
 30
0.0
  0
VERTEX
  5
54
330
3C
100
AcDbEntity
  8
cut line
 62
    22
420
 15540260
370
     9
100
AcDbVertex
100
AcDb2dVertex
 10
127.3824055671127
 20
-59.94707301018685
 30
0.0
  0
VERTEX
  5
55
330
3C
100
AcDbEntity
  8
cut line
 62
    22
420
 15540260
370
     9
100
AcDbVertex
100
AcDb2dVertex
 10
134.4379611209044
 20
-58.65343965547553
 30
0.0
  0
VERTEX
  5
56
330
3C
100
AcDbEntity
  8
cut line
 62
    22
420
 15540260
370
     9
100
AcDbVertex
100
AcDb2dVertex
 10
139.3327527863474
 20
-61.57109102193362
 30
0.0
  0
VERTEX
  5
57
330
3C
100
AcDbEntity
  8
cut line
 62
    22
420
 15540260
370
     9
100
AcDbVertex
100
AcDb2dVertex
 10
141.9930555200573
 20
-61.24036185534963
 30
0.0
  0
VERTEX
  5
58
330
3C
100
AcDbEntity
  8
cut line
 62
    22
420
 15540260
370
     9
100
AcDbVertex
100
AcDb2dVertex
 10
144.9038166955449
 20
-63.09244518821995
 30
0.0
  0
VERTEX
  5
59
330
3C
100
AcDbEntity
  8
cut line
 62
    22
420
 15540260
370
     9
100
AcDbVertex
100
AcDb2dVertex
 10
145.4147243560074
 20
-65.80649141149976
 30
0.0
  0
VERTEX
  5
5A
330
3C
100
AcDbEntity
  8
cut line
 62
    22
420
 15540260
370
     9
100
AcDbVertex
100
AcDb2dVertex
 10
145.491894494877
 20
-42.95482854828907
 30
0.0
  0
VERTEX
  5
5B
330
3C
100
AcDbEntity
  8
cut line
 62
    22
420
 15540260
370
     9
100
AcDbVertex
100
AcDb2dVertex
 10
153.5465277393912
 20
-37.69244519456995
 30
0.0
  0
SEQEND
  5
5C
330
3C
100
AcDbEntity
  8
cut line
370
     9
  0
INSERT
  5
5E
330
1F
100
AcDbEntity
  8
cut line
100
AcDbBlockReference
  2
block 2
 10
0.0
 20
0.0
 30
0.0
  0
POLYLINE
  5
9F
330
1F
100
AcDbEntity
  8
cut line
 62
    22
420
 15540260
370
     9
100
AcDb2dPolyline
 66
     1
 10
0.0
 20
0.0
 30
0.0
  0
VERTEX
  5
A0
330
9F
100
AcDbEntity
  8
cut line
 62
    22
420
 15540260
370
     9
100
AcDbVertex
100
AcDb2dVertex
 10
51.02634276068092
 20
-57.18221162849959
 30
0.0
  0
VERTEX
  5
A1
330
9F
100
AcDbEntity
  8
cut line
 62
    22
420
 15540260
370
     9
100
AcDbVertex
100
AcDb2dVertex
 10
106.7903808326774
 20
-46.72169595186124
 30
0.0
  0
VERTEX
  5
A2
330
9F
100
AcDbEntity
  8
cut line
 62
    22
420
 15540260
370
     9
100
AcDbVertex
100
AcDb2dVertex
 10
127.4464843431384
 20
-157.0171169312318
 30
0.0
  0
VERTEX
  5
A3
330
9F
100
AcDbEntity
  8
cut line
 62
    22
420
 15540260
370
     9
100
AcDbVertex
100
AcDb2dVertex
 10
139.9263427384559
 20
-144.7517157298711
 30
0.0
  0
VERTEX
  5
A4
330
9F
100
AcDbEntity
  8
cut line
 62
    22
420
 15540260
370
     9
100
AcDbVertex
100
AcDb2dVertex
 10
168.7066704222331
 20
-139.3615193336492
 30
0.0
  0
VERTEX
  5
A5
330
9F
100
AcDbEntity
  8
cut line
 62
    22
420
 15540260
370
     9
100
AcDbVertex
100
AcDb2dVertex
 10
184.3921901665756
 20
-146.3688435506474
 30
0.0
  0
VERTEX
  5
A6
330
9F
100
AcDbEntity
  8
cut line
 62
    22
420
 15540260
370
     9
100
AcDbVertex
100
AcDb2dVertex
 10
195.6018418564815
 20
-157.9231770438525
 30
0.0
  0
VERTEX
  5
A7
330
9F
100
AcDbEntity
  8
cut line
 62
    22
420
 15540260
370
     9
100
AcDbVertex
100
AcDb2dVertex
 10
200.6671657484443
 20
-184.9692436603549
 30
0.0
  0
VERTEX
  5
A8
330
9F
100
AcDbEntity
  8
cut line
 62
    22
420
 15540260
370
     9
100
AcDbVertex
100
AcDb2dVertex
 10
194.3664306154709
 20
-199.6257133832533
 30
0.0
  0
VERTEX
  5
A9
330
9F
100
AcDbEntity
  8
cut line
 62
    22
420
 15540260
370
     9
100
AcDbVertex
100
AcDb2dVertex
 10
181.5909830275189
 20
-211.5123263360108
 30
0.0
  0
VERTEX
  5
AA
330
9F
100
AcDbEntity
  8
cut line
 62
    22
420
 15540260
370
     9
100
AcDbVertex
100
AcDb2dVertex
 10
153.5044975744711
 20
-216.7722981228903
 30
0.0
  0
VERTEX
  5
AB
330
9F
100
AcDbEntity
  8
cut line
 62
    22
420
 15540260
370
     9
100
AcDbVertex
100
AcDb2dVertex
 10
137.4203802824852
 20
-210.273469999515
 30
0.0
  0
VERTEX
  5
AC
330
9F
100
AcDbEntity
  8
cut line
 62
    22
420
 15540260
370
     9
100
AcDbVertex
100
AcDb2dVertex
 10
148.1112005923125
 20
-267.3573241519107
 30
0.0
  0
VERTEX
  5
AD
330
9F
100
AcDbEntity
  8
cut line
 62
    22
420
 15540260
370
     9
100
AcDbVertex
100
AcDb2dVertex
 10
135.72125918916
 20
-278.9641953512659
 30
0.0
  0
VERTEX
  5
AE
330
9F
100
AcDbEntity
  8
cut line
 62
    22
420
 15540260
370
     9
100
AcDbVertex
100
AcDb2dVertex
 10
107.6344292265636
 20
-284.2248561572424
 30
0.0
  0
VERTEX
  5
AF
330
9F
100
AcDbEntity
  8
cut line
 62
    22
420
 15540260
370
     9
100
AcDbVertex
100
AcDb2dVertex
 10
92.3411336032168
 20
-277.7852836762134
 30
0.0
  0
VERTEX
  5
B0
330
9F
100
AcDbEntity
  8
cut line
 62
    22
420
 15540260
370
     9
100
AcDbVertex
100
AcDb2dVertex
 10
81.65651446526296
 20
-220.7341579309276
 30
0.0
  0
VERTEX
  5
B1
330
9F
100
AcDbEntity
  8
cut line
 62
    22
420
 15540260
370
     9
100
AcDbVertex
100
AcDb2dVertex
 10
69.24435219623058
 20
-232.5529025026257
 30
0.0
  0
VERTEX
  5
B2
330
9F
100
AcDbEntity
  8
cut line
 62
    22
420
 15540260
370
     9
100
AcDbVertex
100
AcDb2dVertex
 10
41.1576944884085
 20
-237.8132187990537
 30
0.0
  0
VERTEX
  5
B3
330
9F
100
AcDbEntity
  8
cut line
 62
    22
420
 15540260
370
     9
100
AcDbVertex
100
AcDb2dVertex
 10
24.65964897386981
 20
-231.4084417824257
 30
0.0
  0
VERTEX
  5
B4
330
9F
100
AcDbEntity
  8
cut line
 62
    22
420
 15540260
370
     9
100
AcDbVertex
100
AcDb2dVertex
 10
11.88420138591784
 20
-218.5306748585618
 30
0.0
  0
VERTEX
  5
B5
330
9F
100
AcDbEntity
  8
cut line
 62
    22
420
 15540260
370
     9
100
AcDbVertex
100
AcDb2dVertex
 10
7.857918292306354
 20
-197.0322455019572
 30
0.0
  0
VERTEX
  5
B6
330
9F
100
AcDbEntity
  8
cut line
 62
    22
420
 15540260
370
     9
100
AcDbVertex
100
AcDb2dVertex
 10
14.68575303452301
 20
-178.1520887141425
 30
0.0
  0
VERTEX
  5
B7
330
9F
100
AcDbEntity
  8
cut line
 62
    22
420
 15540260
370
     9
100
AcDbVertex
100
AcDb2dVertex
 10
29.40027261634785
 20
-165.451055188672
 30
0.0
  0
VERTEX
  5
B8
330
9F
100
AcDbEntity
  8
cut line
 62
    22
420
 15540260
370
     9
100
AcDbVertex
100
AcDb2dVertex
 10
55.4062649058533
 20
-160.5803791916258
 30
0.0
  0
VERTEX
  5
B9
330
9F
100
AcDbEntity
  8
cut line
 62
    22
420
 15540260
370
     9
100
AcDbVertex
100
AcDb2dVertex
 10
71.68261852591615
 20
-167.4771158435474
 30
0.0
  0
VERTEX
  5
BA
330
9F
100
AcDbEntity
  8
cut line
 62
    22
420
 15540260
370
     9
100
AcDbVertex
100
AcDb2dVertex
 10
51.02634276068092
 20
-57.18221162849959
 30
0.0
  0
SEQEND
  5
BB
330
9F
100
AcDbEntity
  8
cut line
370
     9
  0
INSERT
  5
BD
330
1F
100
AcDbEntity
  8
cut line
100
AcDbBlockReference
  2
block 5
 10
0.0
 20
0.0
 30
0.0
  0
SPLINE
  5
CA
330
1F
100
AcDbEntity
  8
cut line
 62
    22
420
 15540260
370
     9
100
AcDbSpline
210
0.0
220
0.0
230
1.0
 70
    11
 71
     3
 72
    77
 73
    73
 74
     0
 42
0.0000000001
 43
0.0000000001
 40
0.0
 40
0.0
 40
0.0
 40
0.0
 40
1.0
 40
1.0
 40
1.0
 40
2.0
 40
2.0
 40
2.0
 40
3.0
 40
3.0
 40
3.0
 40
4.0
 40
4.0
 40
4.0
 40
5.0
 40
5.0
 40
5.0
 40
6.0
 40
6.0
 40
6.0
 40
7.0
 40
7.0
 40
7.0
 40
8.0
 40
8.0
 40
8.0
 40
9.0
 40
9.0
 40
9.0
 40
10.0
 40
10.0
 40
10.0
 40
11.0
 40
11.0
 40
11.0
 40
12.0
 40
12.0
 40
12.0
 40
13.0
 40
13.0
 40
13.0
 40
14.0
 40
14.0
 40
14.0
 40
15.0
 40
15.0
 40
15.0
 40
16.0
 40
16.0
 40
16.0
 40
17.0
 40
17.0
 40
17.0
 40
18.0
 40
18.0
 40
18.0
 40
19.0
 40
19.0
 40
19.0
 40
20.0
 40
20.0
 40
20.0
 40
21.0
 40
21.0
 40
21.0
 40
22.0
 40
22.0
 40
22.0
 40
23.0
 40
23.0
 40
23.0
 40
24.0
 40
24.0
 40
24.0
 40
24.0
 10
55.415911173212
 20
-48.18396673057554
 30
0.0
 10
55.415911173212
 20
-48.18396673057554
 30
0.0
 10
43.73393689227832
 20
-48.18396673057554
 30
0.0
 10
43.73393689227832
 20
-48.18396673057554
 30
0.0
 10
43.73393689227832
 20
-48.18396673057554
 30
0.0
 10
43.80490585927447
 20
-47.11753742311645
 30
0.0
 10
43.80490585927447
 20
-47.11753742311645
 30
0.0
 10
43.80576713314579
 20
-47.10461831504676
 30
0.0
 10
43.89103324640572
 20
-45.8144300558207
 30
0.0
 10
43.89103324640572
 20
-44.80277776657709
 30
0.0
 10
43.89103324640572
 20
-43.81593016482727
 30
0.0
 10
44.79020316805592
 20
-42.95362276486924
 30
0.0
 10
45.66784124292332
 20
-42.347113704691
 30
0.0
 10
44.72750243022438
 20
-42.24720593561876
 30
0.0
 10
43.56633299692092
 20
-42.0513522572823
 30
0.0
 10
42.65217690990988
 20
-41.66808538454826
 30
0.0
 10
39.81376273961254
 20
-40.47780489439444
 30
0.0
 10
40.78407388303315
 20
-34.29058565766
 30
0.0
 10
41.50461560377315
 20
-31.07424451263075
 30
0.0
 10
41.50461560377315
 20
-31.07424451263075
 30
0.0
 10
38.07019991452759
 20
-31.07424451263075
 30
0.0
 10
38.07019991452759
 20
-31.07424451263075
 30
0.0
 10
38.07019991452759
 20
-31.07424451263075
 30
0.0
 10
38.07019991452759
 20
-9.230616588404152
 30
0.0
 10
38.07019991452759
 20
-9.230616588404152
 30
0.0
 10
38.07019991452759
 20
-9.230616588404152
 30
0.0
 10
48.03617213425832
 20
-9.230616588404152
 30
0.0
 10
48.03617213425832
 20
-9.230616588404152
 30
0.0
 10
48.03617213425832
 20
-9.230616588404152
 30
0.0
 10
48.03617213425832
 20
-6.143811033620297
 30
0.0
 10
48.03617213425832
 20
-6.143811033620297
 30
0.0
 10
48.03617213425832
 20
-6.143811033620297
 30
0.0
 10
53.56382784034169
 20
-6.143811033620297
 30
0.0
 10
53.56382784034169
 20
-6.143811033620297
 30
0.0
 10
53.56382784034169
 20
-6.143811033620297
 30
0.0
 10
53.56382784034169
 20
-9.230616588404152
 30
0.0
 10
53.56382784034169
 20
-9.230616588404152
 30
0.0
 10
53.56382784034169
 20
-9.230616588404152
 30
0.0
 10
61.6777167272021
 20
-9.230616588404152
 30
0.0
 10
61.6777167272021
 20
-9.230616588404152
 30
0.0
 10
61.6777167272021
 20
-9.230616588404152
 30
0.0
 10
61.6777167272021
 20
-16.02227782802568
 30
0.0
 10
61.6777167272021
 20
-16.02227782802568
 30
0.0
 10
61.6777167272021
 20
-16.02227782802568
 30
0.0
 10
62.06528996929271
 20
-16.62499728317014
 30
0.0
 10
62.06528996929271
 20
-16.62499728317014
 30
0.0
 10
63.36753606271715
 20
-16.86701524100894
 30
0.0
 10
66.52841117043387
 20
-17.88400742825469
 30
0.0
 10
66.52841117043387
 20
-22.04861110559896
 30
0.0
 10
66.52841117043387
 20
-25.59482014334088
 30
0.0
 10
64.78812118605991
 20
-27.41934271232919
 30
0.0
 10
63.882577837762
 20
-28.12851561796787
 30
0.0
 10
63.882577837762
 20
-28.12851561796787
 30
0.0
 10
63.882577837762
 20
-36.33611110202708
 30
0.0
 10
63.882577837762
 20
-36.33611110202708
 30
0.0
 10
63.882577837762
 20
-39.02276881619917
 30
0.0
 10
61.48840873028762
 20
-39.96586370528632
 30
0.0
 10
61.38660615869849
 20
-40.00462102949538
 30
0.0
 10
61.38660615869849
 20
-40.00462102949538
 30
0.0
 10
61.21452363921026
 20
-40.07007784371512
 30
0.0
 10
61.21452363921026
 20
-40.07007784371512
 30
0.0
 10
61.21452363921026
 20
-40.07007784371512
 30
0.0
 10
58.16647540863547
 20
-40.07007784371512
 30
0.0
 10
58.16647540863547
 20
-40.07007784371512
 30
0.0
 10
57.97871770468935
 20
-40.39357230978008
 30
0.0
 10
57.69398056283345
 20
-40.78235133529053
 30
0.0
 10
57.26971705382493
 20
-41.24519991373384
 30
0.0
 10
56.64977212125422
 20
-41.92164441226264
 30
0.0
 10
55.96402586491524
 20
-42.24720593561876
 30
0.0
 10
55.415911173212
 20
-42.40257974200352
 30
0.0
 10
55.415911173212
 20
-42.40257974200352
 30
0.0
 10
55.415911173212
 20
-48.18396673057554
 30
0.0
 10
55.415911173212
 20
-48.18396673057554
 30
0.0
  0
POLYLINE
  5
CB
330
1F
100
AcDbEntity
  8
cut line
 62
    22
420
 15540260
370
     9
100
AcDb2dPolyline
 66
     1
 10
0.0
 20
0.0
 30
0.0
  0
VERTEX
  5
CC
330
CB
100
AcDbEntity
  8
cut line
 62
    22
420
 15540260
370
     9
100
AcDbVertex
100
AcDb2dVertex
 10
210.0016519657288
 20
-296.9999592356459
 30
0.0
  0
VERTEX
  5
CD
330
CB
100
AcDbEntity
  8
cut line
 62
    22
420
 15540260
370
     9
100
AcDbVertex
100
AcDb2dVertex
 10
0.0
 20
-296.9999592356459
 30
0.0
  0
VERTEX
  5
CE
330
CB
100
AcDbEntity
  8
cut line
 62
    22
420
 15540260
370
     9
100
AcDbVertex
100
AcDb2dVertex
 10
0.0
 20
0.0
 30
0.0
  0
VERTEX
  5
CF
330
CB
100
AcDbEntity
  8
cut line
 62
    22
420
 15540260
370
     9
100
AcDbVertex
100
AcDb2dVertex
 10
210.0016519657288
 20
0.0
 30
0.0
  0
VERTEX
  5
D0
330
CB
100
AcDbEntity
  8
cut line
 62
    22
420
 15540260
370
     9
100
AcDbVertex
100
AcDb2dVertex
 10
210.0016519657288
 20
-296.9999592356459
 30
0.0
  0
SEQEND
  5
D1
330
CB
100
AcDbEntity
  8
cut line
370
     9
  0
POLYLINE
  5
D2
330
1F
100
AcDbEntity
  8
cut line
 62
    22
420
 15540260
370
     9
100
AcDb2dPolyline
 66
     1
 10
0.0
 20
0.0
 30
0.0
  0
VERTEX
  5
D3
330
D2
100
AcDbEntity
  8
cut line
 62
    22
420
 15540260
370
     9
100
AcDbVertex
100
AcDb2dVertex
 10
254.324183421662
 20
-44.36163328969084
 30
0.0
  0
VERTEX
  5
D4
330
D2
100
AcDbEntity
  8
cut line
 62
    22
420
 15540260
370
     9
100
AcDbVertex
100
AcDb2dVertex
 10
265.1710665569711
 20
-40.92222221199167
 30
0.0
  0
VERTEX
  5
D5
330
D2
100
AcDbEntity
  8
cut line
 62
    22
420
 15540260
370
     9
100
AcDbVertex
100
AcDb2dVertex
 10
290.0053818719431
 20
-47.51475693256576
 30
0.0
  0
VERTEX
  5
D6
330
D2
100
AcDbEntity
  8
cut line
 62
    22
420
 15540260
370
     9
100
AcDbVertex
100
AcDb2dVertex
 10
295.1427082595476
 20
-55.57731389669596
 30
0.0
  0
VERTEX
  5
D7
330
D2
100
AcDbEntity
  8
cut line
 62
    22
420
 15540260
370
     9
100
AcDbVertex
100
AcDb2dVertex
 10
295.1316839539949
 20
-14.70642360743451
 30
0.0
  0
VERTEX
  5
D8
330
D2
100
AcDbEntity
  8
cut line
 62
    22
420
 15540260
370
     9
100
AcDbVertex
100
AcDb2dVertex
 10
336.0060193387416
 20
-14.70642360743451
 30
0.0
  0
VERTEX
  5
D9
330
D2
100
AcDbEntity
  8
cut line
 62
    22
420
 15540260
370
     9
100
AcDbVertex
100
AcDb2dVertex
 10
336.0060193387416
 20
-55.57714164192169
 30
0.0
  0
VERTEX
  5
DA
330
D2
100
AcDbEntity
  8
cut line
 62
    22
420
 15540260
370
     9
100
AcDbVertex
100
AcDb2dVertex
 10
340.8053818592431
 20
-47.80138887693855
 30
0.0
  0
VERTEX
  5
DB
330
D2
100
AcDbEntity
  8
cut line
 62
    22
420
 15540260
370
     9
100
AcDbVertex
100
AcDb2dVertex
 10
365.6982637974643
 20
-40.94427082309727
 30
0.0
  0
VERTEX
  5
DC
330
D2
100
AcDbEntity
  8
cut line
 62
    22
420
 15540260
370
     9
100
AcDbVertex
100
AcDb2dVertex
 10
376.9651040724254
 20
-44.3838541555707
 30
0.0
  0
VERTEX
  5
DD
330
D2
100
AcDbEntity
  8
cut line
 62
    22
420
 15540260
370
     9
100
AcDbVertex
100
AcDb2dVertex
 10
379.4786457384637
 20
-35.74079860217591
 30
0.0
  0
VERTEX
  5
DE
330
D2
100
AcDbEntity
  8
cut line
 62
    22
420
 15540260
370
     9
100
AcDbVertex
100
AcDb2dVertex
 10
404.8786457321137
 20
-22.84236110540052
 30
0.0
  0
VERTEX
  5
DF
330
D2
100
AcDbEntity
  8
cut line
 62
    22
420
 15540260
370
     9
100
AcDbVertex
100
AcDb2dVertex
 10
413.0035589245269
 20
-25.22361110480521
 30
0.0
  0
VERTEX
  5
E0
330
D2
100
AcDbEntity
  8
cut line
 62
    22
420
 15540260
370
     9
100
AcDbVertex
100
AcDb2dVertex
 10
420.6285887620303
 20
-25.39999999365
 30
0.0
  0
VERTEX
  5
E1
330
D2
100
AcDbEntity
  8
cut line
 62
    22
420
 15540260
370
     9
100
AcDbVertex
100
AcDb2dVertex
 10
434.4458332247219
 20
-44.78072915547148
 30
0.0
  0
VERTEX
  5
E2
330
D2
100
AcDbEntity
  8
cut line
 62
    22
420
 15540260
370
     9
100
AcDbVertex
100
AcDb2dVertex
 10
431.9912026914814
 20
-51.65989582041836
 30
0.0
  0
VERTEX
  5
E3
330
D2
100
AcDbEntity
  8
cut line
 62
    22
420
 15540260
370
     9
100
AcDbVertex
100
AcDb2dVertex
 10
437.2680554462386
 20
-54.63645831967422
 30
0.0
  0
VERTEX
  5
E4
330
D2
100
AcDbEntity
  8
cut line
 62
    22
420
 15540260
370
     9
100
AcDbVertex
100
AcDb2dVertex
 10
436.7168401685986
 20
-58.56111109647084
 30
0.0
  0
VERTEX
  5
E5
330
D2
100
AcDbEntity
  8
cut line
 62
    22
420
 15540260
370
     9
100
AcDbVertex
100
AcDb2dVertex
 10
431.3700519754909
 20
-60.44626734599954
 30
0.0
  0
VERTEX
  5
E6
330
D2
100
AcDbEntity
  8
cut line
 62
    22
420
 15540260
370
     9
100
AcDbVertex
100
AcDb2dVertex
 10
430.4109373923973
 20
-68.06406248298399
 30
0.0
  0
VERTEX
  5
E7
330
D2
100
AcDbEntity
  8
cut line
 62
    22
420
 15540260
370
     9
100
AcDbVertex
100
AcDb2dVertex
 10
403.5998262879889
 20
-81.77829859066654
 30
0.0
  0
VERTEX
  5
E8
330
D2
100
AcDbEntity
  8
cut line
 62
    22
420
 15540260
370
     9
100
AcDbVertex
100
AcDb2dVertex
 10
395.7835936510541
 20
-79.25373261907546
 30
0.0
  0
VERTEX
  5
E9
330
D2
100
AcDbEntity
  8
cut line
 62
    22
420
 15540260
370
     9
100
AcDbVertex
100
AcDb2dVertex
 10
391.4069443465928
 20
-82.39565970162332
 30
0.0
  0
VERTEX
  5
EA
330
D2
100
AcDbEntity
  8
cut line
 62
    22
420
 15540260
370
     9
100
AcDbVertex
100
AcDb2dVertex
 10
388.1437499029641
 20
-81.07274303528737
 30
0.0
  0
VERTEX
  5
EB
330
D2
100
AcDbEntity
  8
cut line
 62
    22
420
 15540260
370
     9
100
AcDbVertex
100
AcDb2dVertex
 10
388.2898219515387
 20
-74.84780000298944
 30
0.0
  0
VERTEX
  5
EC
330
D2
100
AcDbEntity
  8
cut line
 62
    22
420
 15540260
370
     9
100
AcDbVertex
100
AcDb2dVertex
 10
383.6162054162488
 20
-90.5464111101759
 30
0.0
  0
VERTEX
  5
ED
330
D2
100
AcDbEntity
  8
cut line
 62
    22
420
 15540260
370
     9
100
AcDbVertex
100
AcDb2dVertex
 10
353.1291774290788
 20
-99.54241669603454
 30
0.0
  0
VERTEX
  5
EE
330
D2
100
AcDbEntity
  8
cut line
 62
    22
420
 15540260
370
     9
100
AcDbVertex
100
AcDb2dVertex
 10
340.2982638038143
 20
-88.01805553355105
 30
0.0
  0
VERTEX
  5
EF
330
D2
100
AcDbEntity
  8
cut line
 62
    22
420
 15540260
370
     9
100
AcDbVertex
100
AcDb2dVertex
 10
343.4732638030206
 20
-93.1774305322612
 30
0.0
  0
VERTEX
  5
F0
330
D2
100
AcDbEntity
  8
cut line
 62
    22
420
 15540260
370
     9
100
AcDbVertex
100
AcDb2dVertex
 10
340.6655109825419
 20
-96.66111108694584
 30
0.0
  0
VERTEX
  5
F1
330
D2
100
AcDbEntity
  8
cut line
 62
    22
420
 15540260
370
     9
100
AcDbVertex
100
AcDb2dVertex
 10
335.508203041123
 20
-95.4319010178087
 30
0.0
  0
VERTEX
  5
F2
330
D2
100
AcDbEntity
  8
cut line
 62
    22
420
 15540260
370
     9
100
AcDbVertex
100
AcDb2dVertex
 10
335.508203041123
 20
-135.6651041327504
 30
0.0
  0
VERTEX
  5
F3
330
D2
100
AcDbEntity
  8
cut line
 62
    22
420
 15540260
370
     9
100
AcDbVertex
100
AcDb2dVertex
 10
295.2419270095228
 20
-135.6651041327504
 30
0.0
  0
VERTEX
  5
F4
330
D2
100
AcDbEntity
  8
cut line
 62
    22
420
 15540260
370
     9
100
AcDbVertex
100
AcDb2dVertex
 10
295.2364148567465
 20
-95.4319010178087
 30
0.0
  0
VERTEX
  5
F5
330
D2
100
AcDbEntity
  8
cut line
 62
    22
420
 15540260
370
     9
100
AcDbVertex
100
AcDb2dVertex
 10
290.5786457606887
 20
-95.73506942051068
 30
0.0
  0
VERTEX
  5
F6
330
D2
100
AcDbEntity
  8
cut line
 62
    22
420
 15540260
370
     9
100
AcDbVertex
100
AcDb2dVertex
 10
288.2194443723896
 20
-92.00885414366445
 30
0.0
  0
VERTEX
  5
F7
330
D2
100
AcDbEntity
  8
cut line
 62
    22
420
 15540260
370
     9
100
AcDbVertex
100
AcDb2dVertex
 10
290.8101561772975
 20
-88.04010414465664
 30
0.0
  0
VERTEX
  5
F8
330
D2
100
AcDbEntity
  8
cut line
 62
    22
420
 15540260
370
     9
100
AcDbVertex
100
AcDb2dVertex
 10
284.3719617344626
 20
-93.97118053206276
 30
0.0
  0
VERTEX
  5
F9
330
D2
100
AcDbEntity
  8
cut line
 62
    22
420
 15540260
370
     9
100
AcDbVertex
100
AcDb2dVertex
 10
275.5194443755646
 20
-98.54264998621504
 30
0.0
  0
VERTEX
  5
FA
330
D2
100
AcDbEntity
  8
cut line
 62
    22
420
 15540260
370
     9
100
AcDbVertex
100
AcDb2dVertex
 10
247.2972221603979
 20
-90.06857636637174
 30
0.0
  0
VERTEX
  5
FB
330
D2
100
AcDbEntity
  8
cut line
 62
    22
420
 15540260
370
     9
100
AcDbVertex
100
AcDb2dVertex
 10
245.4451388275276
 20
-83.24453122918887
 30
0.0
  0
VERTEX
  5
FC
330
D2
100
AcDbEntity
  8
cut line
 62
    22
420
 15540260
370
     9
100
AcDbVertex
100
AcDb2dVertex
 10
242.9426214670421
 20
-74.92118053682526
 30
0.0
  0
VERTEX
  5
FD
330
D2
100
AcDbEntity
  8
cut line
 62
    22
420
 15540260
370
     9
100
AcDbVertex
100
AcDb2dVertex
 10
254.324183421662
 20
-44.36163328969084
 30
0.0
  0
SEQEND
  5
FE
330
D2
100
AcDbEntity
  8
cut line
370
     9
  0
POLYLINE
  5
FF
330
1F
100
AcDbEntity
  8
cut line
 62
    22
420
 15540260
370
     9
100
AcDb2dPolyline
 66
     1
 10
0.0
 20
0.0
 30
0.0
  0
VERTEX
  5
100
330
FF
100
AcDbEntity
  8
cut line
 62
    22
420
 15540260
370
     9
100
AcDbVertex
100
AcDb2dVertex
 10
398.8593749002852
 20
-119.1801499810557
 30
0.0
  0
VERTEX
  5
101
330
FF
100
AcDbEntity
  8
cut line
 62
    22
420
 15540260
370
     9
100
AcDbVertex
100
AcDb2dVertex
 10
401.3436332546988
 20
-115.7993055266057
 30
0.0
  0
VERTEX
  5
102
330
FF
100
AcDbEntity
  8
cut line
 62
    22
420
 15540260
370
     9
100
AcDbVertex
100
AcDb2dVertex
 10
413.632288850585
 20
-115.7993055266057
 30
0.0
  0
VERTEX
  5
103
330
FF
100
AcDbEntity
  8
cut line
 62
    22
420
 15540260
370
     9
100
AcDbVertex
100
AcDb2dVertex
 10
415.9839110288165
 20
-119.1801499810557
 30
0.0
  0
VERTEX
  5
104
330
FF
100
AcDbEntity
  8
cut line
 62
    22
420
 15540260
370
     9
100
AcDbVertex
100
AcDb2dVertex
 10
415.9839110288165
 20
-143.9186916415377
 30
0.0
  0
VERTEX
  5
105
330
FF
100
AcDbEntity
  8
cut line
 62
    22
420
 15540260
370
     9
100
AcDbVertex
100
AcDb2dVertex
 10
418.865044383131
 20
-140.3468166424307
 30
0.0
  0
VERTEX
  5
106
330
FF
100
AcDbEntity
  8
cut line
 62
    22
420
 15540260
370
     9
100
AcDbVertex
100
AcDb2dVertex
 10
424.1567110484747
 20
-140.4055555204542
 30
0.0
  0
VERTEX
  5
107
330
FF
100
AcDbEntity
  8
cut line
 62
    22
420
 15540260
370
     9
100
AcDbVertex
100
AcDb2dVertex
 10
427.0378444027892
 20
-143.9186916415377
 30
0.0
  0
VERTEX
  5
108
330
FF
100
AcDbEntity
  8
cut line
 62
    22
420
 15540260
370
     9
100
AcDbVertex
100
AcDb2dVertex
 10
426.8614555139443
 20
-139.4648721982067
 30
0.0
  0
VERTEX
  5
109
330
FF
100
AcDbEntity
  8
cut line
 62
    22
420
 15540260
370
     9
100
AcDbVertex
100
AcDb2dVertex
 10
432.3295110681329
 20
-134.7280381607625
 30
0.0
  0
VERTEX
  5
10A
330
FF
100
AcDbEntity
  8
cut line
 62
    22
420
 15540260
370
     9
100
AcDbVertex
100
AcDb2dVertex
 10
436.9593748907602
 20
-134.7280381607625
 30
0.0
  0
VERTEX
  5
10B
330
FF
100
AcDbEntity
  8
cut line
 62
    22
420
 15540260
370
     9
100
AcDbVertex
100
AcDb2dVertex
 10
440.5608777110403
 20
-138.8767943988746
 30
0.0
  0
VERTEX
  5
10C
330
FF
100
AcDbEntity
  8
cut line
 62
    22
420
 15540260
370
     9
100
AcDbVertex
100
AcDb2dVertex
 10
440.5608777110403
 20
-157.5741888711967
 30
0.0
  0
VERTEX
  5
10D
330
FF
100
AcDbEntity
  8
cut line
 62
    22
420
 15540260
370
     9
100
AcDbVertex
100
AcDb2dVertex
 10
436.9593748907602
 20
-161.0540798208476
 30
0.0
  0
VERTEX
  5
10E
330
FF
100
AcDbEntity
  8
cut line
 62
    22
420
 15540260
370
     9
100
AcDbVertex
100
AcDb2dVertex
 10
432.564466580227
 20
-165.0851860481384
 30
0.0
  0
VERTEX
  5
10F
330
FF
100
AcDbEntity
  8
cut line
 62
    22
420
 15540260
370
     9
100
AcDbVertex
100
AcDb2dVertex
 10
419.6880776945572
 20
-165.0851860481384
 30
0.0
  0
VERTEX
  5
110
330
FF
100
AcDbEntity
  8
cut line
 62
    22
420
 15540260
370
     9
100
AcDbVertex
100
AcDb2dVertex
 10
415.9839110288165
 20
-161.0540798208476
 30
0.0
  0
VERTEX
  5
111
330
FF
100
AcDbEntity
  8
cut line
 62
    22
420
 15540260
370
     9
100
AcDbVertex
100
AcDb2dVertex
 10
415.9839110288165
 20
-208.5798610589661
 30
0.0
  0
VERTEX
  5
112
330
FF
100
AcDbEntity
  8
cut line
 62
    22
420
 15540260
370
     9
100
AcDbVertex
100
AcDb2dVertex
 10
398.8593749002852
 20
-208.5798610589661
 30
0.0
  0
VERTEX
  5
113
330
FF
100
AcDbEntity
  8
cut line
 62
    22
420
 15540260
370
     9
100
AcDbVertex
100
AcDb2dVertex
 10
398.8593749002852
 20
-161.0540798208476
 30
0.0
  0
VERTEX
  5
114
330
FF
100
AcDbEntity
  8
cut line
 62
    22
420
 15540260
370
     9
100
AcDbVertex
100
AcDb2dVertex
 10
393.8178221671706
 20
-165.0851860481384
 30
0.0
  0
VERTEX
  5
115
330
FF
100
AcDbEntity
  8
cut line
 62
    22
420
 15540260
370
     9
100
AcDbVertex
100
AcDb2dVertex
 10
382.3525443922591
 20
-165.0851860481384
 30
0.0
  0
VERTEX
  5
116
330
FF
100
AcDbEntity
  8
cut line
 62
    22
420
 15540260
370
     9
100
AcDbVertex
100
AcDb2dVertex
 10
377.9428221711393
 20
-161.0540798208476
 30
0.0
  0
VERTEX
  5
117
330
FF
100
AcDbEntity
  8
cut line
 62
    22
420
 15540260
370
     9
100
AcDbVertex
100
AcDb2dVertex
 10
374.0622666165539
 20
-157.6324109848975
 30
0.0
  0
VERTEX
  5
118
330
FF
100
AcDbEntity
  8
cut line
 62
    22
420
 15540260
370
     9
100
AcDbVertex
100
AcDb2dVertex
 10
374.1797443726009
 20
-137.9357665670786
 30
0.0
  0
VERTEX
  5
119
330
FF
100
AcDbEntity
  8
cut line
 62
    22
420
 15540260
370
     9
100
AcDbVertex
100
AcDb2dVertex
 10
377.9428221711393
 20
-134.687730543585
 30
0.0
  0
VERTEX
  5
11A
330
FF
100
AcDbEntity
  8
cut line
 62
    22
420
 15540260
370
     9
100
AcDbVertex
100
AcDb2dVertex
 10
382.9991888148405
 20
-134.687730543585
 30
0.0
  0
VERTEX
  5
11B
330
FF
100
AcDbEntity
  8
cut line
 62
    22
420
 15540260
370
     9
100
AcDbVertex
100
AcDb2dVertex
 10
388.2908554801842
 20
-139.5232665666817
 30
0.0
  0
VERTEX
  5
11C
330
FF
100
AcDbEntity
  8
cut line
 62
    22
420
 15540260
370
     9
100
AcDbVertex
100
AcDb2dVertex
 10
387.9969888352924
 20
-143.9186916415377
 30
0.0
  0
VERTEX
  5
11D
330
FF
100
AcDbEntity
  8
cut line
 62
    22
420
 15540260
370
     9
100
AcDbVertex
100
AcDb2dVertex
 10
390.9366888128561
 20
-140.4639498889292
 30
0.0
  0
VERTEX
  5
11E
330
FF
100
AcDbEntity
  8
cut line
 62
    22
420
 15540260
370
     9
100
AcDbVertex
100
AcDb2dVertex
 10
396.4047443670447
 20
-140.5226887669527
 30
0.0
  0
VERTEX
  5
11F
330
FF
100
AcDbEntity
  8
cut line
 62
    22
420
 15540260
370
     9
100
AcDbVertex
100
AcDb2dVertex
 10
398.8593749002852
 20
-143.9186916415377
 30
0.0
  0
VERTEX
  5
120
330
FF
100
AcDbEntity
  8
cut line
 62
    22
420
 15540260
370
     9
100
AcDbVertex
100
AcDb2dVertex
 10
398.8593749002852
 20
-119.1801499810557
 30
0.0
  0
SEQEND
  5
121
330
FF
100
AcDbEntity
  8
cut line
370
     9
  0
POLYLINE
  5
122
330
1F
100
AcDbEntity
  8
cut line
 62
    22
420
 15540260
370
     9
100
AcDb2dPolyline
 66
     1
 10
0.0
 20
0.0
 30
0.0
  0
VERTEX
  5
123
330
122
100
AcDbEntity
  8
cut line
 62
    22
420
 15540260
370
     9
100
AcDbVertex
100
AcDb2dVertex
 10
388.0290282233053
 20
-286.1789143164761
 30
0.0
  0
VERTEX
  5
124
330
122
100
AcDbEntity
  8
cut line
 62
    22
420
 15540260
370
     9
100
AcDbVertex
100
AcDb2dVertex
 10
385.5447698688916
 20
-289.5599310257003
 30
0.0
  0
VERTEX
  5
125
330
122
100
AcDbEntity
  8
cut line
 62
    22
420
 15540260
370
     9
100
AcDbVertex
100
AcDb2dVertex
 10
373.2561142730054
 20
-289.5599310257003
 30
0.0
  0
VERTEX
  5
126
330
122
100
AcDbEntity
  8
cut line
 62
    22
420
 15540260
370
     9
100
AcDbVertex
100
AcDb2dVertex
 10
370.9044920947739
 20
-286.1789143164761
 30
0.0
  0
VERTEX
  5
127
330
122
100
AcDbEntity
  8
cut line
 62
    22
420
 15540260
370
     9
100
AcDbVertex
100
AcDb2dVertex
 10
370.9044920947739
 20
-261.4403726559941
 30
0.0
  0
VERTEX
  5
128
330
122
100
AcDbEntity
  8
cut line
 62
    22
420
 15540260
370
     9
100
AcDbVertex
100
AcDb2dVertex
 10
368.0233587404595
 20
-265.0122476551011
 30
0.0
  0
VERTEX
  5
129
330
122
100
AcDbEntity
  8
cut line
 62
    22
420
 15540260
370
     9
100
AcDbVertex
100
AcDb2dVertex
 10
362.7316920751157
 20
-264.9536810318519
 30
0.0
  0
VERTEX
  5
12A
330
122
100
AcDbEntity
  8
cut line
 62
    22
420
 15540260
370
     9
100
AcDbVertex
100
AcDb2dVertex
 10
359.8505587208012
 20
-261.4403726559941
 30
0.0
  0
VERTEX
  5
12B
330
122
100
AcDbEntity
  8
cut line
 62
    22
420
 15540260
370
     9
100
AcDbVertex
100
AcDb2dVertex
 10
360.0269476096461
 20
-265.8941920993251
 30
0.0
  0
VERTEX
  5
12C
330
122
100
AcDbEntity
  8
cut line
 62
    22
420
 15540260
370
     9
100
AcDbVertex
100
AcDb2dVertex
 10
354.5588920554575
 20
-270.6311983915436
 30
0.0
  0
VERTEX
  5
12D
330
122
100
AcDbEntity
  8
cut line
 62
    22
420
 15540260
370
     9
100
AcDbVertex
100
AcDb2dVertex
 10
349.9290282328303
 20
-270.6311983915436
 30
0.0
  0
VERTEX
  5
12E
330
122
100
AcDbEntity
  8
cut line
 62
    22
420
 15540260
370
     9
100
AcDbVertex
100
AcDb2dVertex
 10
346.3275254125501
 20
-266.4822698986573
 30
0.0
  0
VERTEX
  5
12F
330
122
100
AcDbEntity
  8
cut line
 62
    22
420
 15540260
370
     9
100
AcDbVertex
100
AcDb2dVertex
 10
346.3275254125501
 20
-247.7850476811093
 30
0.0
  0
VERTEX
  5
130
330
122
100
AcDbEntity
  8
cut line
 62
    22
420
 15540260
370
     9
100
AcDbVertex
100
AcDb2dVertex
 10
349.9290282328303
 20
-244.3051567314585
 30
0.0
  0
VERTEX
  5
131
330
122
100
AcDbEntity
  8
cut line
 62
    22
420
 15540260
370
     9
100
AcDbVertex
100
AcDb2dVertex
 10
354.3239365433635
 20
-240.2740505041676
 30
0.0
  0
VERTEX
  5
132
330
122
100
AcDbEntity
  8
cut line
 62
    22
420
 15540260
370
     9
100
AcDbVertex
100
AcDb2dVertex
 10
367.2003254290333
 20
-240.2740505041676
 30
0.0
  0
VERTEX
  5
133
330
122
100
AcDbEntity
  8
cut line
 62
    22
420
 15540260
370
     9
100
AcDbVertex
100
AcDb2dVertex
 10
370.9044920947739
 20
-244.3051567314585
 30
0.0
  0
VERTEX
  5
134
330
122
100
AcDbEntity
  8
cut line
 62
    22
420
 15540260
370
     9
100
AcDbVertex
100
AcDb2dVertex
 10
370.9044920947739
 20
-196.7793754933399
 30
0.0
  0
VERTEX
  5
135
330
122
100
AcDbEntity
  8
cut line
 62
    22
420
 15540260
370
     9
100
AcDbVertex
100
AcDb2dVertex
 10
388.0290282233053
 20
-196.7793754933399
 30
0.0
  0
VERTEX
  5
136
330
122
100
AcDbEntity
  8
cut line
 62
    22
420
 15540260
370
     9
100
AcDbVertex
100
AcDb2dVertex
 10
388.0290282233053
 20
-244.3051567314585
 30
0.0
  0
VERTEX
  5
137
330
122
100
AcDbEntity
  8
cut line
 62
    22
420
 15540260
370
     9
100
AcDbVertex
100
AcDb2dVertex
 10
393.0705809564199
 20
-240.2740505041676
 30
0.0
  0
VERTEX
  5
138
330
122
100
AcDbEntity
  8
cut line
 62
    22
420
 15540260
370
     9
100
AcDbVertex
100
AcDb2dVertex
 10
404.5358587313314
 20
-240.2740505041676
 30
0.0
  0
VERTEX
  5
139
330
122
100
AcDbEntity
  8
cut line
 62
    22
420
 15540260
370
     9
100
AcDbVertex
100
AcDb2dVertex
 10
408.9455809524511
 20
-244.3051567314585
 30
0.0
  0
VERTEX
  5
13A
330
122
100
AcDbEntity
  8
cut line
 62
    22
420
 15540260
370
     9
100
AcDbVertex
100
AcDb2dVertex
 10
412.8261365070366
 20
-247.7268255674086
 30
0.0
  0
VERTEX
  5
13B
330
122
100
AcDbEntity
  8
cut line
 62
    22
420
 15540260
370
     9
100
AcDbVertex
100
AcDb2dVertex
 10
412.7086587509895
 20
-267.4234699852275
 30
0.0
  0
VERTEX
  5
13C
330
122
100
AcDbEntity
  8
cut line
 62
    22
420
 15540260
370
     9
100
AcDbVertex
100
AcDb2dVertex
 10
408.9455809524511
 20
-270.6715060087211
 30
0.0
  0
VERTEX
  5
13D
330
122
100
AcDbEntity
  8
cut line
 62
    22
420
 15540260
370
     9
100
AcDbVertex
100
AcDb2dVertex
 10
403.88921430875
 20
-270.6715060087211
 30
0.0
  0
VERTEX
  5
13E
330
122
100
AcDbEntity
  8
cut line
 62
    22
420
 15540260
370
     9
100
AcDbVertex
100
AcDb2dVertex
 10
398.5975476434062
 20
-265.8359699856243
 30
0.0
  0
VERTEX
  5
13F
330
122
100
AcDbEntity
  8
cut line
 62
    22
420
 15540260
370
     9
100
AcDbVertex
100
AcDb2dVertex
 10
398.891414288298
 20
-261.4403726559941
 30
0.0
  0
VERTEX
  5
140
330
122
100
AcDbEntity
  8
cut line
 62
    22
420
 15540260
370
     9
100
AcDbVertex
100
AcDb2dVertex
 10
395.9517143107343
 20
-264.8951144086026
 30
0.0
  0
VERTEX
  5
141
330
122
100
AcDbEntity
  8
cut line
 62
    22
420
 15540260
370
     9
100
AcDbVertex
100
AcDb2dVertex
 10
390.4836587565458
 20
-264.8365477853534
 30
0.0
  0
VERTEX
  5
142
330
122
100
AcDbEntity
  8
cut line
 62
    22
420
 15540260
370
     9
100
AcDbVertex
100
AcDb2dVertex
 10
388.0290282233053
 20
-261.4403726559941
 30
0.0
  0
VERTEX
  5
143
330
122
100
AcDbEntity
  8
cut line
 62
    22
420
 15540260
370
     9
100
AcDbVertex
100
AcDb2dVertex
 10
388.0290282233053
 20
-286.1789143164761
 30
0.0
  0
SEQEND
  5
144
330
122
100
AcDbEntity
  8
cut line
370
     9
  0
SPLINE
  5
145
330
1F
100
AcDbEntity
  8
cut line
 62
    22
420
 15540260
370
     9
100
AcDbSpline
210
0.0
220
0.0
230
1.0
 70
    11
 71
     3
 72
   119
 73
   115
 74
     0
 42
0.0000000001
 43
0.0000000001
 40
0.0
 40
0.0
 40
0.0
 40
0.0
 40
1.0
 40
1.0
 40
1.0
 40
2.0
 40
2.0
 40
2.0
 40
3.0
 40
3.0
 40
3.0
 40
4.0
 40
4.0
 40
4.0
 40
5.0
 40
5.0
 40
5.0
 40
6.0
 40
6.0
 40
6.0
 40
7.0
 40
7.0
 40
7.0
 40
8.0
 40
8.0
 40
8.0
 40
9.0
 40
9.0
 40
9.0
 40
10.0
 40
10.0
 40
10.0
 40
11.0
 40
11.0
 40
11.0
 40
12.0
 40
12.0
 40
12.0
 40
13.0
 40
13.0
 40
13.0
 40
14.0
 40
14.0
 40
14.0
 40
15.0
 40
15.0
 40
15.0
 40
16.0
 40
16.0
 40
16.0
 40
17.0
 40
17.0
 40
17.0
 40
18.0
 40
18.0
 40
18.0
 40
19.0
 40
19.0
 40
19.0
 40
20.0
 40
20.0
 40
20.0
 40
21.0
 40
21.0
 40
21.0
 40
22.0
 40
22.0
 40
22.0
 40
23.0
 40
23.0
 40
23.0
 40
24.0
 40
24.0
 40
24.0
 40
25.0
 40
25.0
 40
25.0
 40
26.0
 40
26.0
 40
26.0
 40
27.0
 40
27.0
 40
27.0
 40
28.0
 40
28.0
 40
28.0
 40
29.0
 40
29.0
 40
29.0
 40
30.0
 40
30.0
 40
30.0
 40
31.0
 40
31.0
 40
31.0
 40
32.0
 40
32.0
 40
32.0
 40
33.0
 40
33.0
 40
33.0
 40
34.0
 40
34.0
 40
34.0
 40
35.0
 40
35.0
 40
35.0
 40
36.0
 40
36.0
 40
36.0
 40
37.0
 40
37.0
 40
37.0
 40
38.0
 40
38.0
 40
38.0
 40
38.0
 10
342.7546168847975
 20
-155.7203829905838
 30
0.0
 10
342.7546168847975
 20
-155.7203829905838
 30
0.0
 10
315.5745360539189
 20
-155.7203829905838
 30
0.0
 10
315.5745360539189
 20
-155.7203829905838
 30
0.0
 10
315.5745360539189
 20
-155.7203829905838
 30
0.0
 10
315.5745360539189
 20
-162.7201279975144
 30
0.0
 10
315.5745360539189
 20
-162.7201279975144
 30
0.0
 10
315.5745360539189
 20
-162.7201279975144
 30
0.0
 10
335.7548718778668
 20
-162.7201279975144
 30
0.0
 10
335.7548718778668
 20
-162.7201279975144
 30
0.0
 10
335.7548718778668
 20
-162.7201279975144
 30
0.0
 10
335.7548718778668
 20
-204.2583332822688
 30
0.0
 10
335.7548718778668
 20
-204.2583332822688
 30
0.0
 10
335.7548718778668
 20
-204.2583332822688
 30
0.0
 10
249.6212835747475
 20
-204.2583332822688
 30
0.0
 10
249.6212835747475
 20
-204.2583332822688
 30
0.0
 10
249.6212835747475
 20
-204.2583332822688
 30
0.0
 10
249.6212835747475
 20
-162.7201279975144
 30
0.0
 10
249.6212835747475
 20
-162.7201279975144
 30
0.0
 10
249.6212835747475
 20
-162.7201279975144
 30
0.0
 10
268.3508896898567
 20
-162.7201279975144
 30
0.0
 10
268.3508896898567
 20
-162.7201279975144
 30
0.0
 10
268.3508896898567
 20
-162.7201279975144
 30
0.0
 10
268.3508896898567
 20
-155.7203829905838
 30
0.0
 10
268.3508896898567
 20
-155.7203829905838
 30
0.0
 10
268.3508896898567
 20
-155.7203829905838
 30
0.0
 10
242.6215385678169
 20
-155.7203829905838
 30
0.0
 10
242.6215385678169
 20
-155.7203829905838
 30
0.0
 10
242.6215385678169
 20
-155.7203829905838
 30
0.0
 10
242.6215385678169
 20
-213.7709309361406
 30
0.0
 10
242.6215385678169
 20
-213.7709309361406
 30
0.0
 10
242.6215385678169
 20
-213.7709309361406
 30
0.0
 10
250.918362024944
 20
-213.7709309361406
 30
0.0
 10
250.918362024944
 20
-213.7709309361406
 30
0.0
 10
250.918362024944
 20
-213.7709309361406
 30
0.0
 10
250.918362024944
 20
-218.9757811952561
 30
0.0
 10
250.918362024944
 20
-218.9757811952561
 30
0.0
 10
250.918362024944
 20
-218.9757811952561
 30
0.0
 10
250.918362024944
 20
-219.7498941507917
 30
0.0
 10
250.918362024944
 20
-219.7498941507917
 30
0.0
 10
250.918362024944
 20
-219.7498941507917
 30
0.0
 10
250.918362024944
 20
-220.4554497061709
 30
0.0
 10
250.918362024944
 20
-220.4554497061709
 30
0.0
 10
250.918362024944
 20
-220.4554497061709
 30
0.0
 10
250.918362024944
 20
-220.9160589725488
 30
0.0
 10
250.918362024944
 20
-220.9160589725488
 30
0.0
 10
250.918362024944
 20
-220.9160589725488
 30
0.0
 10
250.918362024944
 20
-226.0220349912375
 30
0.0
 10
250.918362024944
 20
-226.0220349912375
 30
0.0
 10
250.918362024944
 20
-226.0220349912375
 30
0.0
 10
242.6215385678169
 20
-226.0220349912375
 30
0.0
 10
242.6215385678169
 20
-226.0220349912375
 30
0.0
 10
242.6215385678169
 20
-226.0220349912375
 30
0.0
 10
242.6215385678169
 20
-284.0725829367944
 30
0.0
 10
242.6215385678169
 20
-284.0725829367944
 30
0.0
 10
242.6215385678169
 20
-284.0725829367944
 30
0.0
 10
268.3508896898567
 20
-284.0725829367944
 30
0.0
 10
268.3508896898567
 20
-284.0725829367944
 30
0.0
 10
268.3508896898567
 20
-284.0725829367944
 30
0.0
 10
268.3508896898567
 20
-277.0728379298637
 30
0.0
 10
268.3508896898567
 20
-277.0728379298637
 30
0.0
 10
268.3508896898567
 20
-277.0728379298637
 30
0.0
 10
249.6212835747475
 20
-277.0728379298637
 30
0.0
 10
249.6212835747475
 20
-277.0728379298637
 30
0.0
 10
249.6212835747475
 20
-277.0728379298637
 30
0.0
 10
249.6212835747475
 20
-235.8319443854865
 30
0.0
 10
249.6212835747475
 20
-235.8319443854865
 30
0.0
 10
249.6212835747475
 20
-235.8319443854865
 30
0.0
 10
335.7548718778668
 20
-235.8319443854865
 30
0.0
 10
335.7548718778668
 20
-235.8319443854865
 30
0.0
 10
335.7548718778668
 20
-235.8319443854865
 30
0.0
 10
335.7548718778668
 20
-277.0728379298637
 30
0.0
 10
335.7548718778668
 20
-277.0728379298637
 30
0.0
 10
335.7548718778668
 20
-277.0728379298637
 30
0.0
 10
315.5745360539189
 20
-277.0728379298637
 30
0.0
 10
315.5745360539189
 20
-277.0728379298637
 30
0.0
 10
315.5745360539189
 20
-277.0728379298637
 30
0.0
 10
315.5745360539189
 20
-284.0725829367944
 30
0.0
 10
315.5745360539189
 20
-284.0725829367944
 30
0.0
 10
315.5745360539189
 20
-284.0725829367944
 30
0.0
 10
342.7546168847975
 20
-284.0725829367944
 30
0.0
 10
342.7546168847975
 20
-284.0725829367944
 30
0.0
 10
342.7546168847975
 20
-284.0725829367944
 30
0.0
 10
342.7546168847975
 20
-226.0220349912375
 30
0.0
 10
342.7546168847975
 20
-226.0220349912375
 30
0.0
 10
342.7546168847975
 20
-226.0220349912375
 30
0.0
 10
335.3786674508776
 20
-226.0220349912375
 30
0.0
 10
335.3786674508776
 20
-226.0220349912375
 30
0.0
 10
335.4572156279413
 20
-225.6988850347211
 30
0.0
 10
335.5033799074436
 20
-225.3636772440063
 30
0.0
 10
335.5033799074436
 20
-225.0181341668358
 30
0.0
 10
335.5033799074436
 20
-222.6000216457389
 30
0.0
 10
333.4780082716653
 20
-220.5236625967788
 30
0.0
 10
331.0709200561212
 20
-220.4613063684958
 30
0.0
 10
331.0709200561212
 20
-220.4613063684958
 30
0.0
 10
331.1846082071344
 20
-220.4613063684958
 30
0.0
 10
331.1846082071344
 20
-220.4613063684958
 30
0.0
 10
331.1846082071344
 20
-220.4613063684958
 30
0.0
 10
331.1846082071344
 20
-219.7498941507917
 30
0.0
 10
331.1846082071344
 20
-219.7498941507917
 30
0.0
 10
331.1846082071344
 20
-219.7498941507917
 30
0.0
 10
330.9610215101417
 20
-219.7498941507917
 30
0.0
 10
330.9610215101417
 20
-219.7498941507917
 30
0.0
 10
333.4163410624793
 20
-219.7498941507917
 30
0.0
 10
335.5033799074436
 20
-217.6425292424644
 30
0.0
 10
335.5033799074436
 20
-215.1872096901268
 30
0.0
 10
335.5033799074436
 20
-214.6918049593479
 30
0.0
 10
335.4134629152786
 20
-214.2160372728349
 30
0.0
 10
335.2580891088938
 20
-213.7709309361406
 30
0.0
 10
335.2580891088938
 20
-213.7709309361406
 30
0.0
 10
342.7546168847975
 20
-213.7709309361406
 30
0.0
 10
342.7546168847975
 20
-213.7709309361406
 30
0.0
 10
342.7546168847975
 20
-213.7709309361406
 30
0.0
 10
342.7546168847975
 20
-155.7203829905838
 30
0.0
 10
342.7546168847975
 20
-155.7203829905838
 30
0.0
  0
POLYLINE
  5
146
330
1F
100
AcDbEntity
  8
cut line
 62
    22
420
 15540260
370
     9
100
AcDb2dPolyline
 66
     1
 10
0.0
 20
0.0
 30
0.0
  0
VERTEX
  5
147
330
146
100
AcDbEntity
  8
cut line
 62
    22
420
 15540260
370
     9
100
AcDbVertex
100
AcDb2dVertex
 10
267.4096896032865
 20
-220.4554497061709
 30
0.0
  0
VERTEX
  5
148
330
146
100
AcDbEntity
  8
cut line
 62
    22
420
 15540260
370
     9
100
AcDbVertex
100
AcDb2dVertex
 10
264.8120876074081
 20
-226.0220349912375
 30
0.0
  0
VERTEX
  5
149
330
146
100
AcDbEntity
  8
cut line
 62
    22
420
 15540260
370
     9
100
AcDbVertex
100
AcDb2dVertex
 10
261.0555554902917
 20
-226.0220349912375
 30
0.0
  0
VERTEX
  5
14A
330
146
100
AcDbEntity
  8
cut line
 62
    22
420
 15540260
370
     9
100
AcDbVertex
100
AcDb2dVertex
 10
261.0555554902917
 20
-213.7709309361406
 30
0.0
  0
VERTEX
  5
14B
330
146
100
AcDbEntity
  8
cut line
 62
    22
420
 15540260
370
     9
100
AcDbVertex
100
AcDb2dVertex
 10
264.6195067697826
 20
-213.7709309361406
 30
0.0
  0
VERTEX
  5
14C
330
146
100
AcDbEntity
  8
cut line
 62
    22
420
 15540260
370
     9
100
AcDbVertex
100
AcDb2dVertex
 10
267.4096896032865
 20
-219.7498941507917
 30
0.0
  0
VERTEX
  5
14D
330
146
100
AcDbEntity
  8
cut line
 62
    22
420
 15540260
370
     9
100
AcDbVertex
100
AcDb2dVertex
 10
267.4096896032865
 20
-220.4554497061709
 30
0.0
  0
SEQEND
  5
14E
330
146
100
AcDbEntity
  8
cut line
370
     9
  0
POLYLINE
  5
14F
330
1F
100
AcDbEntity
  8
cut line
 62
    22
420
 15540260
370
     9
100
AcDb2dPolyline
 66
     1
 10
0.0
 20
0.0
 30
0.0
  0
VERTEX
  5
150
330
14F
100
AcDbEntity
  8
cut line
 62
    22
420
 15540260
370
     9
100
AcDbVertex
100
AcDb2dVertex
 10
276.9650064411754
 20
-219.7498941507917
 30
0.0
  0
VERTEX
  5
151
330
14F
100
AcDbEntity
  8
cut line
 62
    22
420
 15540260
370
     9
100
AcDbVertex
100
AcDb2dVertex
 10
276.9650064411754
 20
-220.4554497061709
 30
0.0
  0
VERTEX
  5
152
330
14F
100
AcDbEntity
  8
cut line
 62
    22
420
 15540260
370
     9
100
AcDbVertex
100
AcDb2dVertex
 10
276.9650064411754
 20
-220.9160589725488
 30
0.0
  0
VERTEX
  5
153
330
14F
100
AcDbEntity
  8
cut line
 62
    22
420
 15540260
370
     9
100
AcDbVertex
100
AcDb2dVertex
 10
276.9650064411754
 20
-226.0220349912375
 30
0.0
  0
VERTEX
  5
154
330
14F
100
AcDbEntity
  8
cut line
 62
    22
420
 15540260
370
     9
100
AcDbVertex
100
AcDb2dVertex
 10
271.8507621933221
 20
-226.0220349912375
 30
0.0
  0
VERTEX
  5
155
330
14F
100
AcDbEntity
  8
cut line
 62
    22
420
 15540260
370
     9
100
AcDbVertex
100
AcDb2dVertex
 10
269.2307670767896
 20
-220.4554497061709
 30
0.0
  0
VERTEX
  5
156
330
14F
100
AcDbEntity
  8
cut line
 62
    22
420
 15540260
370
     9
100
AcDbVertex
100
AcDb2dVertex
 10
269.1808131922534
 20
-220.4554497061709
 30
0.0
  0
VERTEX
  5
157
330
14F
100
AcDbEntity
  8
cut line
 62
    22
420
 15540260
370
     9
100
AcDbVertex
100
AcDb2dVertex
 10
269.1808131922534
 20
-219.7498941507917
 30
0.0
  0
VERTEX
  5
158
330
14F
100
AcDbEntity
  8
cut line
 62
    22
420
 15540260
370
     9
100
AcDbVertex
100
AcDb2dVertex
 10
269.2307670767896
 20
-219.7498941507917
 30
0.0
  0
VERTEX
  5
159
330
14F
100
AcDbEntity
  8
cut line
 62
    22
420
 15540260
370
     9
100
AcDbVertex
100
AcDb2dVertex
 10
272.0447210691416
 20
-213.7709309361406
 30
0.0
  0
VERTEX
  5
15A
330
14F
100
AcDbEntity
  8
cut line
 62
    22
420
 15540260
370
     9
100
AcDbVertex
100
AcDb2dVertex
 10
276.9650064411754
 20
-213.7709309361406
 30
0.0
  0
VERTEX
  5
15B
330
14F
100
AcDbEntity
  8
cut line
 62
    22
420
 15540260
370
     9
100
AcDbVertex
100
AcDb2dVertex
 10
276.9650064411754
 20
-219.7498941507917
 30
0.0
  0
SEQEND
  5
15C
330
14F
100
AcDbEntity
  8
cut line
370
     9
  0
SPLINE
  5
15D
330
1F
100
AcDbEntity
  8
cut line
 62
    22
420
 15540260
370
     9
100
AcDbSpline
210
0.0
220
0.0
230
1.0
 70
    11
 71
     3
 72
    38
 73
    34
 74
     0
 42
0.0000000001
 43
0.0000000001
 40
0.0
 40
0.0
 40
0.0
 40
0.0
 40
1.0
 40
1.0
 40
1.0
 40
2.0
 40
2.0
 40
2.0
 40
3.0
 40
3.0
 40
3.0
 40
4.0
 40
4.0
 40
4.0
 40
5.0
 40
5.0
 40
5.0
 40
6.0
 40
6.0
 40
6.0
 40
7.0
 40
7.0
 40
7.0
 40
8.0
 40
8.0
 40
8.0
 40
9.0
 40
9.0
 40
9.0
 40
10.0
 40
10.0
 40
10.0
 40
11.0
 40
11.0
 40
11.0
 40
11.0
 10
297.5897595827206
 20
-219.7498941507917
 30
0.0
 10
297.5897595827206
 20
-219.7498941507917
 30
0.0
 10
297.5897595827206
 20
-220.4554497061709
 30
0.0
 10
297.5897595827206
 20
-220.4554497061709
 30
0.0
 10
297.5897595827206
 20
-220.4554497061709
 30
0.0
 10
297.5897595827206
 20
-226.0220349912375
 30
0.0
 10
297.5897595827206
 20
-226.0220349912375
 30
0.0
 10
297.5897595827206
 20
-226.0220349912375
 30
0.0
 10
288.1550210868155
 20
-226.0220349912375
 30
0.0
 10
288.1550210868155
 20
-226.0220349912375
 30
0.0
 10
288.2335692638791
 20
-225.6988850347211
 30
0.0
 10
288.2797335433815
 20
-225.3636772440063
 30
0.0
 10
288.2797335433815
 20
-225.0181341668358
 30
0.0
 10
288.2797335433815
 20
-222.7402370319886
 30
0.0
 10
286.4824272287266
 20
-220.7644747711978
 30
0.0
 10
284.2620631884831
 20
-220.4909341896689
 30
0.0
 10
284.2620631884831
 20
-220.4909341896689
 30
0.0
 10
284.2620631884831
 20
-219.7498941507917
 30
0.0
 10
284.2620631884831
 20
-219.7498941507917
 30
0.0
 10
284.2620631884831
 20
-219.7498941507917
 30
0.0
 10
283.7373751460796
 20
-219.7498941507917
 30
0.0
 10
283.7373751460796
 20
-219.7498941507917
 30
0.0
 10
286.1926946984171
 20
-219.7498941507917
 30
0.0
 10
288.2797335433815
 20
-217.6425292424644
 30
0.0
 10
288.2797335433815
 20
-215.1872096901268
 30
0.0
 10
288.2797335433815
 20
-214.6918049593479
 30
0.0
 10
288.1898165512164
 20
-214.2160372728349
 30
0.0
 10
288.0344427448317
 20
-213.7709309361406
 30
0.0
 10
288.0344427448317
 20
-213.7709309361406
 30
0.0
 10
297.5897595827206
 20
-213.7709309361406
 30
0.0
 10
297.5897595827206
 20
-213.7709309361406
 30
0.0
 10
297.5897595827206
 20
-213.7709309361406
 30
0.0
 10
297.5897595827206
 20
-219.7498941507917
 30
0.0
 10
297.5897595827206
 20
-219.7498941507917
 30
0.0
  0
POLYLINE
  5
15E
330
1F
100
AcDbEntity
  8
cut line
 62
    22
420
 15540260
370
     9
100
AcDb2dPolyline
 66
     1
 10
0.0
 20
0.0
 30
0.0
  0
VERTEX
  5
15F
330
15E
100
AcDbEntity
  8
cut line
 62
    22
420
 15540260
370
     9
100
AcDbVertex
100
AcDb2dVertex
 10
314.6333359673486
 20
-220.4554497061709
 30
0.0
  0
VERTEX
  5
160
330
15E
100
AcDbEntity
  8
cut line
 62
    22
420
 15540260
370
     9
100
AcDbVertex
100
AcDb2dVertex
 10
312.0353894619217
 20
-226.0220349912375
 30
0.0
  0
VERTEX
  5
161
330
15E
100
AcDbEntity
  8
cut line
 62
    22
420
 15540260
370
     9
100
AcDbVertex
100
AcDb2dVertex
 10
301.6205213004629
 20
-226.0220349912375
 30
0.0
  0
VERTEX
  5
162
330
15E
100
AcDbEntity
  8
cut line
 62
    22
420
 15540260
370
     9
100
AcDbVertex
100
AcDb2dVertex
 10
301.6205213004629
 20
-220.4554497061709
 30
0.0
  0
VERTEX
  5
163
330
15E
100
AcDbEntity
  8
cut line
 62
    22
420
 15540260
370
     9
100
AcDbVertex
100
AcDb2dVertex
 10
301.6205213004629
 20
-219.7498941507917
 30
0.0
  0
VERTEX
  5
164
330
15E
100
AcDbEntity
  8
cut line
 62
    22
420
 15540260
370
     9
100
AcDbVertex
100
AcDb2dVertex
 10
301.6205213004629
 20
-213.7709309361406
 30
0.0
  0
VERTEX
  5
165
330
15E
100
AcDbEntity
  8
cut line
 62
    22
420
 15540260
370
     9
100
AcDbVertex
100
AcDb2dVertex
 10
311.8431531338448
 20
-213.7709309361406
 30
0.0
  0
VERTEX
  5
166
330
15E
100
AcDbEntity
  8
cut line
 62
    22
420
 15540260
370
     9
100
AcDbVertex
100
AcDb2dVertex
 10
314.6333359673486
 20
-219.7498941507917
 30
0.0
  0
VERTEX
  5
167
330
15E
100
AcDbEntity
  8
cut line
 62
    22
420
 15540260
370
     9
100
AcDbVertex
100
AcDb2dVertex
 10
314.6333359673486
 20
-220.4554497061709
 30
0.0
  0
SEQEND
  5
168
330
15E
100
AcDbEntity
  8
cut line
370
     9
  0
POLYLINE
  5
169
330
1F
100
AcDbEntity
  8
cut line
 62
    22
420
 15540260
370
     9
100
AcDb2dPolyline
 66
     1
 10
0.0
 20
0.0
 30
0.0
  0
VERTEX
  5
16A
330
169
100
AcDbEntity
  8
cut line
 62
    22
420
 15540260
370
     9
100
AcDbVertex
100
AcDb2dVertex
 10
324.1886528052376
 20
-219.7498941507917
 30
0.0
  0
VERTEX
  5
16B
330
169
100
AcDbEntity
  8
cut line
 62
    22
420
 15540260
370
     9
100
AcDbVertex
100
AcDb2dVertex
 10
324.1886528052376
 20
-220.4554497061709
 30
0.0
  0
VERTEX
  5
16C
330
169
100
AcDbEntity
  8
cut line
 62
    22
420
 15540260
370
     9
100
AcDbVertex
100
AcDb2dVertex
 10
324.1886528052376
 20
-220.4613063684958
 30
0.0
  0
VERTEX
  5
16D
330
169
100
AcDbEntity
  8
cut line
 62
    22
420
 15540260
370
     9
100
AcDbVertex
100
AcDb2dVertex
 10
324.1886528052376
 20
-226.0220349912375
 30
0.0
  0
VERTEX
  5
16E
330
169
100
AcDbEntity
  8
cut line
 62
    22
420
 15540260
370
     9
100
AcDbVertex
100
AcDb2dVertex
 10
319.0744085573842
 20
-226.0220349912375
 30
0.0
  0
VERTEX
  5
16F
330
169
100
AcDbEntity
  8
cut line
 62
    22
420
 15540260
370
     9
100
AcDbVertex
100
AcDb2dVertex
 10
316.4544134408517
 20
-220.4554497061709
 30
0.0
  0
VERTEX
  5
170
330
169
100
AcDbEntity
  8
cut line
 62
    22
420
 15540260
370
     9
100
AcDbVertex
100
AcDb2dVertex
 10
316.4544134408517
 20
-219.7498941507917
 30
0.0
  0
VERTEX
  5
171
330
169
100
AcDbEntity
  8
cut line
 62
    22
420
 15540260
370
     9
100
AcDbVertex
100
AcDb2dVertex
 10
319.2683674332038
 20
-213.7709309361406
 30
0.0
  0
VERTEX
  5
172
330
169
100
AcDbEntity
  8
cut line
 62
    22
420
 15540260
370
     9
100
AcDbVertex
100
AcDb2dVertex
 10
324.1886528052376
 20
-213.7709309361406
 30
0.0
  0
VERTEX
  5
173
330
169
100
AcDbEntity
  8
cut line
 62
    22
420
 15540260
370
     9
100
AcDbVertex
100
AcDb2dVertex
 10
324.1886528052376
 20
-219.7498941507917
 30
0.0
  0
SEQEND
  5
174
330
169
100
AcDbEntity
  8
cut line
370
     9
  0
POLYLINE
  5
175
330
1F
100
AcDbEntity
  8
cut line
 62
    22
420
 15540260
370
     9
100
AcDb2dPolyline
 66
     1
 10
0.0
 20
0.0
 30
0.0
  0
VERTEX
  5
176
330
175
100
AcDbEntity
  8
cut line
 62
    22
420
 15540260
370
     9
100
AcDbVertex
100
AcDb2dVertex
 10
443.1367756053617
 20
-299.3908555024092
 30
0.0
  0
VERTEX
  5
177
330
175
100
AcDbEntity
  8
cut line
 62
    22
420
 15540260
370
     9
100
AcDbVertex
100
AcDb2dVertex
 10
233.1351236396329
 20
-299.3908555024092
 30
0.0
  0
VERTEX
  5
178
330
175
100
AcDbEntity
  8
cut line
 62
    22
420
 15540260
370
     9
100
AcDbVertex
100
AcDb2dVertex
 10
233.1351236396329
 20
-2.390896266763387
 30
0.0
  0
VERTEX
  5
179
330
175
100
AcDbEntity
  8
cut line
 62
    22
420
 15540260
370
     9
100
AcDbVertex
100
AcDb2dVertex
 10
443.1367756053617
 20
-2.390896266763387
 30
0.0
  0
VERTEX
  5
17A
330
175
100
AcDbEntity
  8
cut line
 62
    22
420
 15540260
370
     9
100
AcDbVertex
100
AcDb2dVertex
 10
443.1367756053617
 20
-299.3908555024092
 30
0.0
  0
SEQEND
  5
17B
330
175
100
AcDbEntity
  8
cut line
370
     9
  0
INSERT
  5
17E
330
1F
100
AcDbEntity
  8
fold line
100
AcDbBlockReference
  2
block 8
 10
0.0
 20
0.0
 30
0.0
  0
INSERT
  5
1A4
330
1F
100
AcDbEntity
  8
fold line
100
AcDbBlockReference
  2
block 9
 10
0.0
 20
0.0
 30
0.0
  0
INSERT
  5
1BF
330
1F
100
AcDbEntity
  8
fold line
100
AcDbBlockReference
  2
block 10
 10
0.0
 20
0.0
 30
0.0
  0
INSERT
  5
1DA
330
1F
100
AcDbEntity
  8
fold line
100
AcDbBlockReference
  2
block 11
 10
0.0
 20
0.0
 30
0.0
  0
POLYLINE
  5
1F4
330
1F
100
AcDbEntity
  8
fold line
 62
   156
420
    18551
370
     9
100
AcDb2dPolyline
 66
     1
 10
0.0
 20
0.0
 30
0.0
  0
VERTEX
  5
1F5
330
1F4
100
AcDbEntity
  8
fold line
 62
   156
420
    18551
370
     9
100
AcDbVertex
100
AcDb2dVertex
 10
242.9426214670421
 20
-74.92118053682526
 30
0.0
  0
VERTEX
  5
1F6
330
1F4
100
AcDbEntity
  8
fold line
 62
   156
420
    18551
370
     9
100
AcDbVertex
100
AcDb2dVertex
 10
290.8101561772975
 20
-88.04010414465664
 30
0.0
  0
VERTEX
  5
1F7
330
1F4
100
AcDbEntity
  8
fold line
 62
   156
420
    18551
370
     9
100
AcDbVertex
100
AcDb2dVertex
 10
295.2364148567465
 20
-95.4319010178087
 30
0.0
  0
VERTEX
  5
1F8
330
1F4
100
AcDbEntity
  8
fold line
 62
   156
420
    18551
370
     9
100
AcDbVertex
100
AcDb2dVertex
 10
335.508203041123
 20
-95.4319010178087
 30
0.0
  0
VERTEX
  5
1F9
330
1F4
100
AcDbEntity
  8
fold line
 62
   156
420
    18551
370
     9
100
AcDbVertex
100
AcDb2dVertex
 10
340.3644096371311
 20
-88.08420136686784
 30
0.0
  0
VERTEX
  5
1FA
330
1F4
100
AcDbEntity
  8
fold line
 62
   156
420
    18551
370
     9
100
AcDbVertex
100
AcDb2dVertex
 10
388.2898219515387
 20
-74.84780000298944
 30
0.0
  0
VERTEX
  5
1FB
330
1F4
100
AcDbEntity
  8
fold line
 62
   156
420
    18551
370
     9
100
AcDbVertex
100
AcDb2dVertex
 10
395.7835936510541
 20
-79.25373261907546
 30
0.0
  0
VERTEX
  5
1FC
330
1F4
100
AcDbEntity
  8
fold line
 62
   156
420
    18551
370
     9
100
AcDbVertex
100
AcDb2dVertex
 10
431.3700519754909
 20
-60.44626734599954
 30
0.0
  0
VERTEX
  5
1FD
330
1F4
100
AcDbEntity
  8
fold line
 62
   156
420
    18551
370
     9
100
AcDbVertex
100
AcDb2dVertex
 10
431.9912026914814
 20
-51.65989582041836
 30
0.0
  0
VERTEX
  5
1FE
330
1F4
100
AcDbEntity
  8
fold line
 62
   156
420
    18551
370
     9
100
AcDbVertex
100
AcDb2dVertex
 10
413.0035589245269
 20
-25.22361110480521
 30
0.0
  0
VERTEX
  5
1FF
330
1F4
100
AcDbEntity
  8
fold line
 62
   156
420
    18551
370
     9
100
AcDbVertex
100
AcDb2dVertex
 10
376.9430554613198
 20
-44.3838541555707
 30
0.0
  0
VERTEX
  5
200
330
1F4
100
AcDbEntity
  8
fold line
 62
   156
420
    18551
370
     9
100
AcDbVertex
100
AcDb2dVertex
 10
336.0060193387416
 20
-55.57714164192169
 30
0.0
  0
VERTEX
  5
201
330
1F4
100
AcDbEntity
  8
fold line
 62
   156
420
    18551
370
     9
100
AcDbVertex
100
AcDb2dVertex
 10
295.1427082595476
 20
-55.57731389669596
 30
0.0
  0
VERTEX
  5
202
330
1F4
100
AcDbEntity
  8
fold line
 62
   156
420
    18551
370
     9
100
AcDbVertex
100
AcDb2dVertex
 10
290.8101561772975
 20
-88.04010414465664
 30
0.0
  0
VERTEX
  5
203
330
1F4
100
AcDbEntity
  8
fold line
 62
   156
420
    18551
370
     9
100
AcDbVertex
100
AcDb2dVertex
 10
340.3644096371311
 20
-88.08420136686784
 30
0.0
  0
VERTEX
  5
204
330
1F4
100
AcDbEntity
  8
fold line
 62
   156
420
    18551
370
     9
100
AcDbVertex
100
AcDb2dVertex
 10
336.0060193387416
 20
-55.57714164192169
 30
0.0
  0
SEQEND
  5
205
330
1F4
100
AcDbEntity
  8
fold line
370
     9
  0
POLYLINE
  5
206
330
1F
100
AcDbEntity
  8
fold line
 62
   156
420
    18551
370
     9
100
AcDb2dPolyline
 66
     1
 10
0.0
 20
0.0
 30
0.0
  0
VERTEX
  5
207
330
206
100
AcDbEntity
  8
fold line
 62
   156
420
    18551
370
     9
100
AcDbVertex
100
AcDb2dVertex
 10
245.4451388275276
 20
-83.24453122918887
 30
0.0
  0
VERTEX
  5
208
330
206
100
AcDbEntity
  8
fold line
 62
   156
420
    18551
370
     9
100
AcDbVertex
100
AcDb2dVertex
 10
284.3719617344626
 20
-93.97118053206276
 30
0.0
  0
SEQEND
  5
209
330
206
100
AcDbEntity
  8
fold line
370
     9
  0
POLYLINE
  5
20A
330
1F
100
AcDbEntity
  8
fold line
 62
   156
420
    18551
370
     9
100
AcDb2dPolyline
 66
     1
 10
0.0
 20
0.0
 30
0.0
  0
VERTEX
  5
20B
330
20A
100
AcDbEntity
  8
fold line
 62
   156
420
    18551
370
     9
100
AcDbVertex
100
AcDb2dVertex
 10
254.324183421662
 20
-44.36163328969084
 30
0.0
  0
VERTEX
  5
20C
330
20A
100
AcDbEntity
  8
fold line
 62
   156
420
    18551
370
     9
100
AcDbVertex
100
AcDb2dVertex
 10
295.1427082595476
 20
-55.57731389669596
 30
0.0
  0
SEQEND
  5
20D
330
20A
100
AcDbEntity
  8
fold line
370
     9
  0
POLYLINE
  5
20E
330
1F
100
AcDbEntity
  8
fold line
 62
   156
420
    18551
370
     9
100
AcDb2dPolyline
 66
     1
 10
0.0
 20
0.0
 30
0.0
  0
VERTEX
  5
20F
330
20E
100
AcDbEntity
  8
fold line
 62
   156
420
    18551
370
     9
100
AcDbVertex
100
AcDb2dVertex
 10
346.898377734456
 20
-93.95653887625045
 30
0.0
  0
VERTEX
  5
210
330
20E
100
AcDbEntity
  8
fold line
 62
   156
420
    18551
370
     9
100
AcDbVertex
100
AcDb2dVertex
 10
385.8796331500579
 20
-83.22609996834278
 30
0.0
  0
SEQEND
  5
211
330
20E
100
AcDbEntity
  8
fold line
370
     9
  0
POLYLINE
  5
212
330
1F
100
AcDbEntity
  8
fold line
 62
   156
420
    18551
370
     9
100
AcDb2dPolyline
 66
     1
 10
0.0
 20
0.0
 30
0.0
  0
VERTEX
  5
213
330
212
100
AcDbEntity
  8
fold line
 62
   156
420
    18551
370
     9
100
AcDbVertex
100
AcDb2dVertex
 10
376.9430554613198
 20
-44.3838541555707
 30
0.0
  0
VERTEX
  5
214
330
212
100
AcDbEntity
  8
fold line
 62
   156
420
    18551
370
     9
100
AcDbVertex
100
AcDb2dVertex
 10
388.2898219515387
 20
-74.84780000298944
 30
0.0
  0
VERTEX
  5
215
330
212
100
AcDbEntity
  8
fold line
 62
   156
420
    18551
370
     9
100
AcDbVertex
100
AcDb2dVertex
 10
431.9912026914814
 20
-51.65989582041836
 30
0.0
  0
SEQEND
  5
216
330
212
100
AcDbEntity
  8
fold line
370
     9
  0
POLYLINE
  5
217
330
1F
100
AcDbEntity
  8
fold line
 62
   156
420
    18551
370
     9
100
AcDb2dPolyline
 66
     1
 10
0.0
 20
0.0
 30
0.0
  0
VERTEX
  5
218
330
217
100
AcDbEntity
  8
fold line
 62
   156
420
    18551
370
     9
100
AcDbVertex
100
AcDb2dVertex
 10
378.0020778134856
 20
-134.6947929893298
 30
0.0
  0
VERTEX
  5
219
330
217
100
AcDbEntity
  8
fold line
 62
   156
420
    18551
370
     9
100
AcDbVertex
100
AcDb2dVertex
 10
388.0004339307777
 20
-143.9037054761769
 30
0.0
  0
VERTEX
  5
21A
330
217
100
AcDbEntity
  8
fold line
 62
   156
420
    18551
370
     9
100
AcDbVertex
100
AcDb2dVertex
 10
427.0044269765822
 20
-143.9037054761769
 30
0.0
  0
VERTEX
  5
21B
330
217
100
AcDbEntity
  8
fold line
 62
   156
420
    18551
370
     9
100
AcDbVertex
100
AcDb2dVertex
 10
436.9741888013468
 20
-134.6947929893298
 30
0.0
  0
VERTEX
  5
21C
330
217
100
AcDbEntity
  8
fold line
 62
   156
420
    18551
370
     9
100
AcDbVertex
100
AcDb2dVertex
 10
436.9741888013468
 20
-161.0334092479361
 30
0.0
  0
VERTEX
  5
21D
330
217
100
AcDbEntity
  8
fold line
 62
   156
420
    18551
370
     9
100
AcDbVertex
100
AcDb2dVertex
 10
378.0020778134856
 20
-161.0334092479361
 30
0.0
  0
VERTEX
  5
21E
330
217
100
AcDbEntity
  8
fold line
 62
   156
420
    18551
370
     9
100
AcDbVertex
100
AcDb2dVertex
 10
378.0020778134856
 20
-134.6947929893298
 30
0.0
  0
SEQEND
  5
21F
330
217
100
AcDbEntity
  8
fold line
370
     9
  0
POLYLINE
  5
220
330
1F
100
AcDbEntity
  8
fold line
 62
   156
420
    18551
370
     9
100
AcDb2dPolyline
 66
     1
 10
0.0
 20
0.0
 30
0.0
  0
VERTEX
  5
221
330
220
100
AcDbEntity
  8
fold line
 62
   156
420
    18551
370
     9
100
AcDbVertex
100
AcDb2dVertex
 10
398.8445609896986
 20
-119.1801499810557
 30
0.0
  0
VERTEX
  5
222
330
220
100
AcDbEntity
  8
fold line
 62
   156
420
    18551
370
     9
100
AcDbVertex
100
AcDb2dVertex
 10
415.9839110288165
 20
-119.1801499810557
 30
0.0
  0
SEQEND
  5
223
330
220
100
AcDbEntity
  8
fold line
370
     9
  0
POLYLINE
  5
224
330
1F
100
AcDbEntity
  8
fold line
 62
   156
420
    18551
370
     9
100
AcDb2dPolyline
 66
     1
 10
0.0
 20
0.0
 30
0.0
  0
VERTEX
  5
225
330
224
100
AcDbEntity
  8
fold line
 62
   156
420
    18551
370
     9
100
AcDbVertex
100
AcDb2dVertex
 10
398.8445609896986
 20
-132.9384833109494
 30
0.0
  0
VERTEX
  5
226
330
224
100
AcDbEntity
  8
fold line
 62
   156
420
    18551
370
     9
100
AcDbVertex
100
AcDb2dVertex
 10
415.9839110288165
 20
-132.9384833109494
 30
0.0
  0
SEQEND
  5
227
330
224
100
AcDbEntity
  8
fold line
370
     9
  0
POLYLINE
  5
228
330
1F
100
AcDbEntity
  8
fold line
 62
   156
420
    18551
370
     9
100
AcDb2dPolyline
 66
     1
 10
0.0
 20
0.0
 30
0.0
  0
VERTEX
  5
229
330
228
100
AcDbEntity
  8
fold line
 62
   156
420
    18551
370
     9
100
AcDbVertex
100
AcDb2dVertex
 10
398.8445609896986
 20
-172.0969888892674
 30
0.0
  0
VERTEX
  5
22A
330
228
100
AcDbEntity
  8
fold line
 62
   156
420
    18551
370
     9
100
AcDbVertex
100
AcDb2dVertex
 10
415.9839110288165
 20
-172.0969888892674
 30
0.0
  0
SEQEND
  5
22B
330
228
100
AcDbEntity
  8
fold line
370
     9
  0
POLYLINE
  5
22C
330
1F
100
AcDbEntity
  8
fold line
 62
   156
420
    18551
370
     9
100
AcDb2dPolyline
 66
     1
 10
0.0
 20
0.0
 30
0.0
  0
VERTEX
  5
22D
330
22C
100
AcDbEntity
  8
fold line
 62
   156
420
    18551
370
     9
100
AcDbVertex
100
AcDb2dVertex
 10
398.8445609896986
 20
-182.1511555534206
 30
0.0
  0
VERTEX
  5
22E
330
22C
100
AcDbEntity
  8
fold line
 62
   156
420
    18551
370
     9
100
AcDbVertex
100
AcDb2dVertex
 10
415.9839110288165
 20
-182.1511555534206
 30
0.0
  0
SEQEND
  5
22F
330
22C
100
AcDbEntity
  8
fold line
370
     9
  0
POLYLINE
  5
230
330
1F
100
AcDbEntity
  8
fold line
 62
    22
420
 15540260
370
     9
100
AcDb2dPolyline
 66
     1
 10
0.0
 20
0.0
 30
0.0
  0
VERTEX
  5
231
330
230
100
AcDbEntity
  8
fold line
 62
    22
420
 15540260
370
     9
100
AcDbVertex
100
AcDb2dVertex
 10
388.0290282233053
 20
-286.1789143164761
 30
0.0
  0
VERTEX
  5
232
330
230
100
AcDbEntity
  8
fold line
 62
    22
420
 15540260
370
     9
100
AcDbVertex
100
AcDb2dVertex
 10
385.5447698688916
 20
-289.5599310257003
 30
0.0
  0
VERTEX
  5
233
330
230
100
AcDbEntity
  8
fold line
 62
    22
420
 15540260
370
     9
100
AcDbVertex
100
AcDb2dVertex
 10
373.2561142730054
 20
-289.5599310257003
 30
0.0
  0
VERTEX
  5
234
330
230
100
AcDbEntity
  8
fold line
 62
    22
420
 15540260
370
     9
100
AcDbVertex
100
AcDb2dVertex
 10
370.9044920947739
 20
-286.1789143164761
 30
0.0
  0
VERTEX
  5
235
330
230
100
AcDbEntity
  8
fold line
 62
    22
420
 15540260
370
     9
100
AcDbVertex
100
AcDb2dVertex
 10
370.9044920947739
 20
-261.4403726559941
 30
0.0
  0
VERTEX
  5
236
330
230
100
AcDbEntity
  8
fold line
 62
    22
420
 15540260
370
     9
100
AcDbVertex
100
AcDb2dVertex
 10
368.0233587404595
 20
-265.0122476551011
 30
0.0
  0
VERTEX
  5
237
330
230
100
AcDbEntity
  8
fold line
 62
    22
420
 15540260
370
     9
100
AcDbVertex
100
AcDb2dVertex
 10
362.7316920751157
 20
-264.9536810318519
 30
0.0
  0
VERTEX
  5
238
330
230
100
AcDbEntity
  8
fold line
 62
    22
420
 15540260
370
     9
100
AcDbVertex
100
AcDb2dVertex
 10
359.8505587208012
 20
-261.4403726559941
 30
0.0
  0
VERTEX
  5
239
330
230
100
AcDbEntity
  8
fold line
 62
    22
420
 15540260
370
     9
100
AcDbVertex
100
AcDb2dVertex
 10
360.0269476096461
 20
-265.8941920993251
 30
0.0
  0
VERTEX
  5
23A
330
230
100
AcDbEntity
  8
fold line
 62
    22
420
 15540260
370
     9
100
AcDbVertex
100
AcDb2dVertex
 10
354.5588920554575
 20
-270.6311983915436
 30
0.0
  0
VERTEX
  5
23B
330
230
100
AcDbEntity
  8
fold line
 62
    22
420
 15540260
370
     9
100
AcDbVertex
100
AcDb2dVertex
 10
349.9290282328303
 20
-270.6311983915436
 30
0.0
  0
VERTEX
  5
23C
330
230
100
AcDbEntity
  8
fold line
 62
    22
420
 15540260
370
     9
100
AcDbVertex
100
AcDb2dVertex
 10
346.3275254125501
 20
-266.4826144082057
 30
0.0
  0
VERTEX
  5
23D
330
230
100
AcDbEntity
  8
fold line
 62
    22
420
 15540260
370
     9
100
AcDbVertex
100
AcDb2dVertex
 10
346.3275254125501
 20
-247.7850476811093
 30
0.0
  0
VERTEX
  5
23E
330
230
100
AcDbEntity
  8
fold line
 62
    22
420
 15540260
370
     9
100
AcDbVertex
100
AcDb2dVertex
 10
349.9290282328303
 20
-244.3051567314585
 30
0.0
  0
VERTEX
  5
23F
330
230
100
AcDbEntity
  8
fold line
 62
    22
420
 15540260
370
     9
100
AcDbVertex
100
AcDb2dVertex
 10
354.3239365433635
 20
-240.2740505041676
 30
0.0
  0
VERTEX
  5
240
330
230
100
AcDbEntity
  8
fold line
 62
    22
420
 15540260
370
     9
100
AcDbVertex
100
AcDb2dVertex
 10
367.2003254290333
 20
-240.2740505041676
 30
0.0
  0
VERTEX
  5
241
330
230
100
AcDbEntity
  8
fold line
 62
    22
420
 15540260
370
     9
100
AcDbVertex
100
AcDb2dVertex
 10
370.9044920947739
 20
-244.3051567314585
 30
0.0
  0
VERTEX
  5
242
330
230
100
AcDbEntity
  8
fold line
 62
    22
420
 15540260
370
     9
100
AcDbVertex
100
AcDb2dVertex
 10
370.9044920947739
 20
-196.7793754933399
 30
0.0
  0
VERTEX
  5
243
330
230
100
AcDbEntity
  8
fold line
 62
    22
420
 15540260
370
     9
100
AcDbVertex
100
AcDb2dVertex
 10
388.0290282233053
 20
-196.7793754933399
 30
0.0
  0
VERTEX
  5
244
330
230
100
AcDbEntity
  8
fold line
 62
    22
420
 15540260
370
     9
100
AcDbVertex
100
AcDb2dVertex
 10
388.0290282233053
 20
-244.3051567314585
 30
0.0
  0
VERTEX
  5
245
330
230
100
AcDbEntity
  8
fold line
 62
    22
420
 15540260
370
     9
100
AcDbVertex
100
AcDb2dVertex
 10
393.0705809564199
 20
-240.2740505041676
 30
0.0
  0
VERTEX
  5
246
330
230
100
AcDbEntity
  8
fold line
 62
    22
420
 15540260
370
     9
100
AcDbVertex
100
AcDb2dVertex
 10
404.5358587313314
 20
-240.2740505041676
 30
0.0
  0
VERTEX
  5
247
330
230
100
AcDbEntity
  8
fold line
 62
    22
420
 15540260
370
     9
100
AcDbVertex
100
AcDb2dVertex
 10
408.9455809524511
 20
-244.3051567314585
 30
0.0
  0
VERTEX
  5
248
330
230
100
AcDbEntity
  8
fold line
 62
    22
420
 15540260
370
     9
100
AcDbVertex
100
AcDb2dVertex
 10
412.8261365070366
 20
-247.7268255674086
 30
0.0
  0
VERTEX
  5
249
330
230
100
AcDbEntity
  8
fold line
 62
    22
420
 15540260
370
     9
100
AcDbVertex
100
AcDb2dVertex
 10
412.7086587509895
 20
-267.4234699852275
 30
0.0
  0
VERTEX
  5
24A
330
230
100
AcDbEntity
  8
fold line
 62
    22
420
 15540260
370
     9
100
AcDbVertex
100
AcDb2dVertex
 10
408.9455809524511
 20
-270.6715060087211
 30
0.0
  0
VERTEX
  5
24B
330
230
100
AcDbEntity
  8
fold line
 62
    22
420
 15540260
370
     9
100
AcDbVertex
100
AcDb2dVertex
 10
403.88921430875
 20
-270.6715060087211
 30
0.0
  0
VERTEX
  5
24C
330
230
100
AcDbEntity
  8
fold line
 62
    22
420
 15540260
370
     9
100
AcDbVertex
100
AcDb2dVertex
 10
398.5975476434062
 20
-265.8359699856243
 30
0.0
  0
VERTEX
  5
24D
330
230
100
AcDbEntity
  8
fold line
 62
    22
420
 15540260
370
     9
100
AcDbVertex
100
AcDb2dVertex
 10
398.891414288298
 20
-261.4403726559941
 30
0.0
  0
VERTEX
  5
24E
330
230
100
AcDbEntity
  8
fold line
 62
    22
420
 15540260
370
     9
100
AcDbVertex
100
AcDb2dVertex
 10
395.9517143107343
 20
-264.8951144086026
 30
0.0
  0
VERTEX
  5
24F
330
230
100
AcDbEntity
  8
fold line
 62
    22
420
 15540260
370
     9
100
AcDbVertex
100
AcDb2dVertex
 10
390.4836587565458
 20
-264.8365477853534
 30
0.0
  0
VERTEX
  5
250
330
230
100
AcDbEntity
  8
fold line
 62
    22
420
 15540260
370
     9
100
AcDbVertex
100
AcDb2dVertex
 10
388.0290282233053
 20
-261.4403726559941
 30
0.0
  0
VERTEX
  5
251
330
230
100
AcDbEntity
  8
fold line
 62
    22
420
 15540260
370
     9
100
AcDbVertex
100
AcDb2dVertex
 10
388.0290282233053
 20
-286.1789143164761
 30
0.0
  0
SEQEND
  5
252
330
230
100
AcDbEntity
  8
fold line
370
     9
  0
POLYLINE
  5
253
330
1F
100
AcDbEntity
  8
fold line
 62
   156
420
    18551
370
     9
100
AcDb2dPolyline
 66
     1
 10
0.0
 20
0.0
 30
0.0
  0
VERTEX
  5
254
330
253
100
AcDbEntity
  8
fold line
 62
   156
420
    18551
370
     9
100
AcDbVertex
100
AcDb2dVertex
 10
408.8863253101048
 20
-270.664271308202
 30
0.0
  0
VERTEX
  5
255
330
253
100
AcDbEntity
  8
fold line
 62
   156
420
    18551
370
     9
100
AcDbVertex
100
AcDb2dVertex
 10
398.8879691928128
 20
-261.4555310761292
 30
0.0
  0
VERTEX
  5
256
330
253
100
AcDbEntity
  8
fold line
 62
   156
420
    18551
370
     9
100
AcDbVertex
100
AcDb2dVertex
 10
359.8839761470082
 20
-261.4555310761292
 30
0.0
  0
VERTEX
  5
257
330
253
100
AcDbEntity
  8
fold line
 62
   156
420
    18551
370
     9
100
AcDbVertex
100
AcDb2dVertex
 10
349.9142143222437
 20
-270.664271308202
 30
0.0
  0
VERTEX
  5
258
330
253
100
AcDbEntity
  8
fold line
 62
   156
420
    18551
370
     9
100
AcDbVertex
100
AcDb2dVertex
 10
349.9142143222437
 20
-244.3258273043699
 30
0.0
  0
VERTEX
  5
259
330
253
100
AcDbEntity
  8
fold line
 62
   156
420
    18551
370
     9
100
AcDbVertex
100
AcDb2dVertex
 10
408.8863253101048
 20
-244.3258273043699
 30
0.0
  0
VERTEX
  5
25A
330
253
100
AcDbEntity
  8
fold line
 62
   156
420
    18551
370
     9
100
AcDbVertex
100
AcDb2dVertex
 10
408.8863253101048
 20
-270.664271308202
 30
0.0
  0
SEQEND
  5
25B
330
253
100
AcDbEntity
  8
fold line
370
     9
  0
POLYLINE
  5
25C
330
1F
100
AcDbEntity
  8
fold line
 62
   156
420
    18551
370
     9
100
AcDb2dPolyline
 66
     1
 10
0.0
 20
0.0
 30
0.0
  0
VERTEX
  5
25D
330
25C
100
AcDbEntity
  8
fold line
 62
   156
420
    18551
370
     9
100
AcDbVertex
100
AcDb2dVertex
 10
388.0438421338918
 20
-286.1789143164761
 30
0.0
  0
VERTEX
  5
25E
330
25C
100
AcDbEntity
  8
fold line
 62
   156
420
    18551
370
     9
100
AcDbVertex
100
AcDb2dVertex
 10
370.9044920947739
 20
-286.1789143164761
 30
0.0
  0
SEQEND
  5
25F
330
25C
100
AcDbEntity
  8
fold line
370
     9
  0
POLYLINE
  5
260
330
1F
100
AcDbEntity
  8
fold line
 62
   156
420
    18551
370
     9
100
AcDb2dPolyline
 66
     1
 10
0.0
 20
0.0
 30
0.0
  0
VERTEX
  5
261
330
260
100
AcDbEntity
  8
fold line
 62
   156
420
    18551
370
     9
100
AcDbVertex
100
AcDb2dVertex
 10
388.0438421338918
 20
-272.4205809865824
 30
0.0
  0
VERTEX
  5
262
330
260
100
AcDbEntity
  8
fold line
 62
   156
420
    18551
370
     9
100
AcDbVertex
100
AcDb2dVertex
 10
370.9044920947739
 20
-272.4205809865824
 30
0.0
  0
SEQEND
  5
263
330
260
100
AcDbEntity
  8
fold line
370
     9
  0
POLYLINE
  5
264
330
1F
100
AcDbEntity
  8
fold line
 62
   156
420
    18551
370
     9
100
AcDb2dPolyline
 66
     1
 10
0.0
 20
0.0
 30
0.0
  0
VERTEX
  5
265
330
264
100
AcDbEntity
  8
fold line
 62
   156
420
    18551
370
     9
100
AcDbVertex
100
AcDb2dVertex
 10
388.0438421338918
 20
-233.2622476630386
 30
0.0
  0
VERTEX
  5
266
330
264
100
AcDbEntity
  8
fold line
 62
   156
420
    18551
370
     9
100
AcDbVertex
100
AcDb2dVertex
 10
370.9044920947739
 20
-233.2622476630386
 30
0.0
  0
SEQEND
  5
267
330
264
100
AcDbEntity
  8
fold line
370
     9
  0
POLYLINE
  5
268
330
1F
100
AcDbEntity
  8
fold line
 62
   156
420
    18551
370
     9
100
AcDb2dPolyline
 66
     1
 10
0.0
 20
0.0
 30
0.0
  0
VERTEX
  5
269
330
268
100
AcDbEntity
  8
fold line
 62
   156
420
    18551
370
     9
100
AcDbVertex
100
AcDb2dVertex
 10
388.0438421338918
 20
-223.2080809988855
 30
0.0
  0
VERTEX
  5
26A
330
268
100
AcDbEntity
  8
fold line
 62
   156
420
    18551
370
     9
100
AcDbVertex
100
AcDb2dVertex
 10
370.9044920947739
 20
-223.2080809988855
 30
0.0
  0
SEQEND
  5
26B
330
268
100
AcDbEntity
  8
fold line
370
     9
  0
ENDSEC
  0
SECTION
  2
OBJECTS
  0
DICTIONARY
  5
C
330
0
100
AcDbDictionary
281
     1
  3
ACAD_GROUP
350
D
  3
ACAD_LAYOUT
350
1A
  3
ACAD_MLINESTYLE
350
17
  3
ACAD_PLOTSETTINGS
350
19
  3
ACAD_PLOTSTYLENAME
350
E
  3
ACAD_TABLESTYLE
350
26C
  3
ACAD_VISUALSTYLE
350
2A
  0
DICTIONARY
  5
D
102
{ACAD_REACTORS
330
C
102
}
330
C
100
AcDbDictionary
281
     1
  0
DICTIONARY
  5
1A
102
{ACAD_REACTORS
330
C
102
}
330
C
100
AcDbDictionary
281
     1
  3
Layout1
350
1E
  3
Layout2
350
26
  3
Model
350
22
  0
DICTIONARY
  5
17
102
{ACAD_REACTORS
330
C
102
}
330
C
100
AcDbDictionary
281
     1
  3
Standard
350
18
  0
DICTIONARY
  5
19
102
{ACAD_REACTORS
330
C
102
}
330
C
100
AcDbDictionary
281
     1
  0
ACDBDICTIONARYWDFLT
  5
E
102
{ACAD_REACTORS
330
C
102
}
330
C
100
AcDbDictionary
281
     1
  3
Normal
350
F
100
AcDbDictionaryWithDefault
340
F
  0
DICTIONARY
  5
26C
102
{ACAD_REACTORS
330
C
102
}
330
C
100
AcDbDictionary
281
     1
  0
DICTIONARY
  5
2A
102
{ACAD_REACTORS
330
C
102
}
330
C
100
AcDbDictionary
281
     1
  3
2dWireframe
350
2F
  3
3D Hidden
350
31
  3
3dWireframe
350
30
  3
Basic
350
32
  3
Brighten
350
36
  3
ColorChange
350
3A
  3
Conceptual
350
34
  3
Dim
350
35
  3
Facepattern
350
39
  3
Flat
350
2B
  3
FlatWithEdges
350
2C
  3
Gouraud
350
2D
  3
GouraudWithEdges
350
2E
  3
Linepattern
350
38
  3
Realistic
350
33
  3
Thicken
350
37
  0
LAYOUT
  5
1E
102
{ACAD_REACTORS
330
1A
102
}
330
1A
100
AcDbPlotSettings
  1

  2
none_device
  4

  6

 40
0.0
 41
0.0
 42
0.0
 43
0.0
 44
0.0
 45
0.0
 46
0.0
 47
0.0
 48
0.0
 49
0.0
140
0.0
141
0.0
142
1.0
143
1.0
 70
   688
 72
     0
 73
     0
 74
     5
  7

 75
    16
 76
     0
 77
     2
 78
   300
147
1.0
148
0.0
149
0.0
100
AcDbLayout
  1
Layout1
 70
     1
 71
     1
 10
0.0
 20
0.0
 11
12.0
 21
9.0
 12
0.0
 22
0.0
 32
0.0
 14
1.000000000000000E+20
 24
1.000000000000000E+20
 34
1.000000000000000E+20
 15
-1.000000000000000E+20
 25
-1.000000000000000E+20
 35
-1.000000000000000E+20
146
0.0
 13
0.0
 23
0.0
 33
0.0
 16
1.0
 26
0.0
 36
0.0
 17
0.0
 27
1.0
 37
0.0
 76
     0
330
1B
  0
LAYOUT
  5
26
102
{ACAD_REACTORS
330
1A
102
}
330
1A
100
AcDbPlotSettings
  1

  2
none_device
  4

  6

 40
0.0
 41
0.0
 42
0.0
 43
0.0
 44
0.0
 45
0.0
 46
0.0
 47
0.0
 48
0.0
 49
0.0
140
0.0
141
0.0
142
1.0
143
1.0
 70
   688
 72
     0
 73
     0
 74
     5
  7

 75
    16
 76
     0
 77
     2
 78
   300
147
1.0
148
0.0
149
0.0
100
AcDbLayout
  1
Layout2
 70
     1
 71
     2
 10
0.0
 20
0.0
 11
0.0
 21
0.0
 12
0.0
 22
0.0
 32
0.0
 14
0.0
 24
0.0
 34
0.0
 15
0.0
 25
0.0
 35
0.0
146
0.0
 13
0.0
 23
0.0
 33
0.0
 16
1.0
 26
0.0
 36
0.0
 17
0.0
 27
1.0
 37
0.0
 76
     0
330
23
  0
LAYOUT
  5
22
102
{ACAD_REACTORS
330
1A
102
}
330
1A
100
AcDbPlotSettings
  1

  2
none_device
  4

  6

 40
0.0
 41
0.0
 42
0.0
 43
0.0
 44
0.0
 45
0.0
 46
0.0
 47
0.0
 48
0.0
 49
0.0
140
0.0
141
0.0
142
1.0
143
1.0
 70
  1712
 72
     0
 73
     0
 74
     0
  7

 75
     0
 76
     0
 77
     2
 78
   300
147
1.0
148
0.0
149
0.0
100
AcDbLayout
  1
Model
 70
     1
 71
     0
 10
0.0
 20
0.0
 11
12.0
 21
9.0
 12
0.0
 22
0.0
 32
0.0
 14
1.000000000000000E+20
 24
1.000000000000000E+20
 34
1.000000000000000E+20
 15
-1.000000000000000E+20
 25
-1.000000000000000E+20
 35
-1.000000000000000E+20
146
0.0
 13
0.0
 23
0.0
 33
0.0
 16
1.0
 26
0.0
 36
0.0
 17
0.0
 27
1.0
 37
0.0
 76
     0
330
1F
331
29
  0
MLINESTYLE
  5
18
102
{ACAD_REACTORS
330
17
102
}
330
17
100
AcDbMlineStyle
  2
Standard
 70
     0
  3

 62
   256
 51
90.0
 52
90.0
 71
     2
 49
0.5
 62
   256
  6
BYLAYER
 49
-0.5
 62
   256
  6
BYLAYER
  0
ACDBPLACEHOLDER
  5
F
102
{ACAD_REACTORS
330
E
102
}
330
E
  0
VISUALSTYLE
  5
2F
102
{ACAD_REACTORS
330
2A
102
}
330
2A
100
AcDbVisualStyle
  2
2dWireframe
 70
     4
 71
     0
 72
     2
 73
     0
 90
        0
 40
-0.6
 41
-30.0
 62
     5
 63
     7
421
 16777215
 74
     1
 91
        4
 64
     7
 65
   257
 75
     1
175
     1
 42
1.0
 92
        0
 66
   257
 43
1.0
 76
     1
 77
     6
 78
     2
 67
     7
 79
     5
170
     0
171
     0
290
     0
174
     0
 93
        1
 44
0.0
173
     0
291
     0
 45
0.0
1001
ACAD
1000
AcDbSavedByObjectVersion
1070
     0
  0
VISUALSTYLE
  5
31
102
{ACAD_REACTORS
330
2A
102
}
330
2A
100
AcDbVisualStyle
  2
3D Hidden
 70
     6
 71
     1
 72
     2
 73
     2
 90
        0
 40
-0.6
 41
-30.0
 62
     5
 63
     7
421
 16777215
 74
     2
 91
        2
 64
     7
 65
   257
 75
     2
175
     1
 42
40.0
 92
        0
 66
   257
 43
1.0
 76
     1
 77
     6
 78
     2
 67
     7
 79
     3
170
     0
171
     0
290
     0
174
     0
 93
        1
 44
0.0
173
     0
291
     0
 45
0.0
1001
ACAD
1000
AcDbSavedByObjectVersion
1070
     0
  0
VISUALSTYLE
  5
30
102
{ACAD_REACTORS
330
2A
102
}
330
2A
100
AcDbVisualStyle
  2
3dWireframe
 70
     5
 71
     0
 72
     2
 73
     0
 90
        0
 40
-0.6
 41
-30.0
 62
     5
 63
     7
421
 16777215
 74
     1
 91
        4
 64
     7
 65
   257
 75
     1
175
     1
 42
1.0
 92
        0
 66
   257
 43
1.0
 76
     1
 77
     6
 78
     2
 67
     7
 79
     5
170
     0
171
     0
290
     0
174
     0
 93
        1
 44
0.0
173
     0
291
     0
 45
0.0
1001
ACAD
1000
AcDbSavedByObjectVersion
1070
     0
  0
VISUALSTYLE
  5
32
102
{ACAD_REACTORS
330
2A
102
}
330
2A
100
AcDbVisualStyle
  2
Basic
 70
     7
 71
     1
 72
     0
 73
     1
 90
        0
 40
-0.6
 41
-30.0
 62
     5
 63
     7
421
 16777215
 74
     0
 91
        4
 64
     7
 65
   257
 75
     1
175
     1
 42
1.0
 92
        8
 66
     7
 43
1.0
 76
     1
 77
     6
 78
     2
 67
     7
 79
     5
170
     0
171
     0
290
     0
174
     0
 93
        1
 44
0.0
173
     0
291
     1
 45
0.0
1001
ACAD
1000
AcDbSavedByObjectVersion
1070
     0
  0
VISUALSTYLE
  5
36
102
{ACAD_REACTORS
330
2A
102
}
330
2A
100
AcDbVisualStyle
  2
Brighten
 70
    12
 71
     2
 72
     2
 73
     0
 90
        0
 40
-0.6
 41
-30.0
 62
     5
 63
     7
421
 16777215
 74
     1
 91
        4
 64
     7
 65
   257
 75
     1
175
     1
 42
1.0
 92
        8
 66
     7
 43
1.0
 76
     1
 77
     6
 78
     2
 67
     7
 79
     5
170
     0
171
     0
290
     0
174
     0
 93
        1
 44
50.0
173
     0
291
     1
 45
0.0
1001
ACAD
1000
AcDbSavedByObjectVersion
1070
     0
  0
VISUALSTYLE
  5
3A
102
{ACAD_REACTORS
330
2A
102
}
330
2A
100
AcDbVisualStyle
  2
ColorChange
 70
    16
 71
     2
 72
     2
 73
     3
 90
        0
 40
-0.6
 41
-30.0
 62
     5
 63
     8
421
  8421504
 74
     1
 91
        4
 64
     7
 65
   257
 75
     1
175
     1
 42
1.0
 92
        8
 66
     8
424
  8421504
 43
1.0
 76
     1
 77
     6
 78
     2
 67
     7
 79
     5
170
     0
171
     0
290
     0
174
     0
 93
        1
 44
0.0
173
     0
291
     1
 45
0.0
1001
ACAD
1000
AcDbSavedByObjectVersion
1070
     0
  0
VISUALSTYLE
  5
34
102
{ACAD_REACTORS
330
2A
102
}
330
2A
100
AcDbVisualStyle
  2
Conceptual
 70
     9
 71
     3
 72
     2
 73
     0
 90
        0
 40
-0.6
 41
-30.0
 62
     5
 63
     7
421
 16777215
 74
     2
 91
        2
 64
     7
 65
   257
 75
     1
175
     1
 42
40.0
 92
        8
 66
     7
 43
1.0
 76
     1
 77
     6
 78
     2
 67
     7
 79
     3
170
     0
171
     0
290
     0
174
     0
 93
        1
 44
0.0
173
     0
291
     0
 45
0.0
1001
ACAD
1000
AcDbSavedByObjectVersion
1070
     0
  0
VISUALSTYLE
  5
35
102
{ACAD_REACTORS
330
2A
102
}
330
2A
100
AcDbVisualStyle
  2
Dim
 70
    11
 71
     2
 72
     2
 73
     0
 90
        0
 40
-0.6
 41
-30.0
 62
     5
 63
     7
421
 16777215
 74
     1
 91
        4
 64
     7
 65
   257
 75
     1
175
     1
 42
1.0
 92
        8
 66
     7
 43
1.0
 76
     1
 77
     6
 78
     2
 67
     7
 79
     5
170
     0
171
     0
290
     0
174
     0
 93
        1
 44
-50.0
173
     0
291
     1
 45
0.0
1001
ACAD
1000
AcDbSavedByObjectVersion
1070
     0
  0
VISUALSTYLE
  5
39
102
{ACAD_REACTORS
330
2A
102
}
330
2A
100
AcDbVisualStyle
  2
Facepattern
 70
    15
 71
     2
 72
     2
 73
     0
 90
        0
 40
-0.6
 41
-30.0
 62
     5
 63
     7
421
 16777215
 74
     1
 91
        4
 64
     7
 65
   257
 75
     1
175
     1
 42
1.0
 92
        8
 66
     7
 43
1.0
 76
     1
 77
     6
 78
     2
 67
     7
 79
     5
170
     0
171
     0
290
     0
174
     0
 93
        1
 44
0.0
173
     0
291
     1
 45
0.0
1001
ACAD
1000
AcDbSavedByObjectVersion
1070
     0
  0
VISUALSTYLE
  5
2B
102
{ACAD_REACTORS
330
2A
102
}
330
2A
100
AcDbVisualStyle
  2
Flat
 70
     0
 71
     2
 72
     1
 73
     1
 90
        2
 40
-0.6
 41
30.0
 62
     5
 63
     7
421
 16777215
 74
     0
 91
        4
 64
     7
 65
   257
 75
     1
175
     1
 42
1.0
 92
        8
 66
     7
 43
1.0
 76
     1
 77
     6
 78
     2
 67
     7
 79
     5
170
     0
171
     0
290
     0
174
     0
 93
       13
 44
0.0
173
     0
291
     1
 45
0.0
1001
ACAD
1000
AcDbSavedByObjectVersion
1070
     0
  0
VISUALSTYLE
  5
2C
102
{ACAD_REACTORS
330
2A
102
}
330
2A
100
AcDbVisualStyle
  2
FlatWithEdges
 70
     1
 71
     2
 72
     1
 73
     1
 90
        2
 40
-0.6
 41
30.0
 62
     5
 63
     7
421
 16777215
 74
     1
 91
        4
 64
     7
 65
   257
 75
     1
175
     1
 42
1.0
 92
        0
 66
   257
 43
1.0
 76
     1
 77
     6
 78
     2
 67
     7
 79
     5
170
     0
171
     0
290
     0
174
     0
 93
       13
 44
0.0
173
     0
291
     1
 45
0.0
1001
ACAD
1000
AcDbSavedByObjectVersion
1070
     0
  0
VISUALSTYLE
  5
2D
102
{ACAD_REACTORS
330
2A
102
}
330
2A
100
AcDbVisualStyle
  2
Gouraud
 70
     2
 71
     2
 72
     2
 73
     1
 90
        2
 40
-0.6
 41
30.0
 62
     5
 63
     7
421
 16777215
 74
     0
 91
        4
 64
     7
 65
   257
 75
     1
175
     1
 42
1.0
 92
        0
 66
     7
 43
1.0
 76
     1
 77
     6
 78
     2
 67
     7
 79
     5
170
     0
171
     0
290
     0
174
     0
 93
       13
 44
0.0
173
     0
291
     1
 45
0.0
1001
ACAD
1000
AcDbSavedByObjectVersion
1070
     0
  0
VISUALSTYLE
  5
2E
102
{ACAD_REACTORS
330
2A
102
}
330
2A
100
AcDbVisualStyle
  2
GouraudWithEdges
 70
     3
 71
     2
 72
     2
 73
     1
 90
        2
 40
-0.6
 41
30.0
 62
     5
 63
     7
421
 16777215
 74
     1
 91
        4
 64
     7
 65
   257
 75
     1
175
     1
 42
1.0
 92
        0
 66
   257
 43
1.0
 76
     1
 77
     6
 78
     2
 67
     7
 79
     5
170
     0
171
     0
290
     0
174
     0
 93
       13
 44
0.0
173
     0
291
     1
 45
0.0
1001
ACAD
1000
AcDbSavedByObjectVersion
1070
     0
  0
VISUALSTYLE
  5
38
102
{ACAD_REACTORS
330
2A
102
}
330
2A
100
AcDbVisualStyle
  2
Linepattern
 70
    14
 71
     2
 72
     2
 73
     0
 90
        0
 40
-0.6
 41
-30.0
 62
     5
 63
     7
421
 16777215
 74
     1
 91
        4
 64
     7
 65
   257
 75
     7
175
     7
 42
1.0
 92
        8
 66
     7
 43
1.0
 76
     1
 77
     6
 78
     2
 67
     7
 79
     5
170
     0
171
     0
290
     0
174
     0
 93
        1
 44
0.0
173
     0
291
     1
 45
0.0
1001
ACAD
1000
AcDbSavedByObjectVersion
1070
     0
  0
VISUALSTYLE
  5
33
102
{ACAD_REACTORS
330
2A
102
}
330
2A
100
AcDbVisualStyle
  2
Realistic
 70
     8
 71
     2
 72
     2
 73
     0
 90
        0
 40
-0.6
 41
-30.0
 62
     5
 63
     7
421
 16777215
 74
     1
 91
        0
 64
     7
 65
   257
 75
     1
175
     1
 42
1.0
 92
        8
 66
     8
424
  7895160
 43
1.0
 76
     1
 77
     6
 78
     2
 67
     7
 79
     5
170
     0
171
     0
290
     0
174
     0
 93
       13
 44
0.0
173
     0
291
     0
 45
0.0
1001
ACAD
1000
AcDbSavedByObjectVersion
1070
     0
  0
VISUALSTYLE
  5
37
102
{ACAD_REACTORS
330
2A
102
}
330
2A
100
AcDbVisualStyle
  2
Thicken
 70
    13
 71
     2
 72
     2
 73
     0
 90
        0
 40
-0.6
 41
-30.0
 62
     5
 63
     7
421
 16777215
 74
     1
 91
        4
 64
     7
 65
   257
 75
     1
175
     1
 42
1.0
 92
       12
 66
     7
 43
1.0
 76
     1
 77
     6
 78
     2
 67
     7
 79
     5
170
     0
171
     0
290
     0
174
     0
 93
        1
 44
0.0
173
     0
291
     1
 45
0.0
1001
ACAD
1000
AcDbSavedByObjectVersion
1070
     0
  0
ENDSEC
  0
EOF
